» » »

Jesus Culture - Unstoppable Love Tabs

Artists:  A B C D E F G H I J K L M N O P Q R S T U V W X Y Z # 

Unstoppable Love Tabs

(ver. 1) Click to play this song!
Jesus Culture
 Rating:
2.5/5 (28 votes)

 Unstoppable Love  lessons Tabs too difficult? Try these video lessons and learn fast
 
                Chorus (Version 1):  Can be played like this or like version 2.

E|--------6--------7--------7------------|
B|-----7--------8--------8--------8--10--|
G|-----------7--------7--------7---------|
D|--9------------------------------------|
A|---------------------------------------|
E|---------------------------------------|

Chorus (Version 2:

E|--------------------------------------------------|
B|----------12----------12----------12--------------|
G|------12----------12----------12----------12--14--|
D|--10----------12----------12----------12----------|
A|--------------------------------------------------|
E|--------------------------------------------------|

Lead riff:  Make sure to have some Reverb and Delay on here to make it sound like the CD.

E|----12------------------------------10----------------------------|
B|------------10--12----10--12--10------------10--12----10--12--10--|
G|--------12------------------------------12------------------------|
D|------------------------------------------------------------------|
A|------------------------------------------------------------------|
E|------------------------------------------------------------------|

E|--10------------------------------------------------------------|
B|----------10--12----10--12--10----13------10--12----10--12--10--|
G|------12------------------------------12------------------------|
D|----------------------------------------------------------------|
A|----------------------------------------------------------------|
E|----------------------------------------------------------------|            
Submit corrections


        Unstoppable Love  lessons Hard to play? Try these video lessons and learn fast Unstoppable Love  lessons
        
↑ Back to top | Tablatures and chords for acoustic guitar and electric guitar, ukulele, drums are parodies/interpretations of the original songs. You may use it for private study, scholarship, research or language learning purposes only