» » »

Jesus Culture - Sing Out Tabs

Artists:  A B C D E F G H I J K L M N O P Q R S T U V W X Y Z # 

Sing Out Tabs

(ver. 1) Click to play this song!
Jesus Culture
 Rating:
4.4/5 (8 votes)

 Sing Out  lessons Tabs too difficult? Try these video lessons and learn fast
 
                -------------------------
INTRO
****** 
  00:21          00:33
e|---7-5--------|---7-5--------|
B|-------8--s---|-------8--s---|
G|-0-------7\-0-|-0-------7\-0-|
D|--------------|--------------|
A|--------------|--------------|
E|--------------|--------------|


-------------------------
00:37
VERSE 1
********
  00:45          00:58          01:08
e|---7-5--------|---7-5--------|-----------------|
B|-------8--s---|-------8--s---|---------------s-|
G|-0-------7\-0-|-0-------7\-0-|-----7---5-7-4-\-|
D|--------------|--------------|-5---------------|
A|--------------|--------------|-----------------|
E|--------------|--------------|-----------------|


-------------------------
01:13
CHORUS
*******
   Let every heart Let every tongue. Lift up Your name With all creation sing
e|---------|---------|---------|---------|---------|---------|---------|---------|
B|---------|---------|---------|---------|---------|---------|---------|---------|
G|---------|---------|-0-0-0-0-|-0-0-2-2-|-4-4-4-4-|-4-4-4-4-|-2-2-2-2-|-2-2-2-2-|
D|-2-2-2-2-|-2-2-4-4-|---------|---------|---------|---------|---------|---------|
A|---------|---------|---------|---------|---------|---------|---------|---------|
E|---------|---------|---------|---------|---------|---------|---------|---------|

   Let earth resound With Heaven's praise. And with one voice Let all creation sing
e|---------|---------|---------|---------|---------|---------|---------|-----------|
B|---------|---------|---------|---------|---------|---------|---------|-----------|
G|---------|---------|-0-0-0-0-|-0-0-2-2-|-4-4-4-4-|-4-4-4-4-|-2-2-2-2-|-2-2-2-2-0-|
D|-2-2-2-2-|-2-2-4-4-|---------|---------|---------|---------|---------|-----------|
A|---------|---------|---------|---------|---------|---------|---------|-----------|
E|---------|---------|---------|---------|---------|---------|---------|-----------|


-------------------------
  01:41          01:47
e|---7-5--------|---7-5--------|
B|-------8--s---|-------8--s---|
G|-0-------7\-0-|-0-------7\-0-|
D|--------------|--------------|
A|--------------|--------------|
E|--------------|--------------|


-------------------------
01:50
VERSE 2
********
  01:59          02:11          02:21
e|---7-5--------|---7-5--------|-----------------|
B|-------8--s---|-------8--s---|---------------s-|
G|-0-------7\-0-|-0-------7\-0-|-----7---5-7-4-\-|
D|--------------|--------------|-5---------------|
A|--------------|--------------|-----------------|
E|--------------|--------------|-----------------|


-------------------------
02:27
CHORUS
*******
   Let every heart Let every tongue. Lift up Your name With all creation sing
e|---------|---------|---------|---------|---------|---------|---------|---------|
B|---------|---------|---------|---------|---------|---------|---------|---------|
G|---------|---------|-0-0-0-0-|-0-0-2-2-|-4-4-4-4-|-4-4-4-4-|-2-2-2-2-|-2-2-2-2-|
D|-2-2-2-2-|-2-2-4-4-|---------|---------|---------|---------|---------|---------|
A|---------|---------|---------|---------|---------|---------|---------|---------|
E|---------|---------|---------|---------|---------|---------|---------|---------|

   Let earth resound With Heaven's praise. And with one voice Let all creation sing
e|---------|---------|---------|---------|---------|---------|---------|---------|
B|---------|---------|---------|---------|---------|---------|---------|---------|
G|---------|---------|-0-0-0-0-|-0-0-2-2-|-4-4-4-4-|-4-4-4-4-|-2-2-2-2-|-2-2-2-2-|
D|-2-2-2-2-|-2-2-4-4-|---------|---------|---------|---------|---------|---------|
A|---------|---------|---------|---------|---------|---------|---------|---------|
E|---------|---------|---------|---------|---------|---------|---------|---------|


   Let every heart Let every tongue. Lift up Your name With all creation sing
e|---------|---------|---------|---------|---------|---------|---------|---------|
B|---------|---------|---------|---------|---------|---------|---------|---------|
G|---------|---------|-0-0-0-0-|-0-0-2-2-|-4-4-4-4-|-4-4-4-4-|-2-2-2-2-|-2-2-2-2-|
D|-2-2-2-2-|-2-2-4-4-|---------|---------|---------|---------|---------|---------|
A|---------|---------|---------|---------|---------|---------|---------|---------|
E|---------|---------|---------|---------|---------|---------|---------|---------|

   Let earth resound With Heaven's praise. And with one voice Let all creation sing
e|---------|---------|---------|---------|---------|---------|---------|-----------|
B|---------|---------|---------|---------|---------|---------|---------|-----------|
G|---------|---------|-0-0-0-0-|-0-0-2-2-|-4-4-4-4-|-4-4-4-4-|-2-2-2-2-|-2-2-2-2-0-|
D|-2-2-2-2-|-2-2-4-4-|---------|---------|---------|---------|---------|-----------|
A|---------|---------|---------|---------|---------|---------|---------|-----------|
E|---------|---------|---------|---------|---------|---------|---------|-----------|


-------------------------
BRIDGE
*******
  03:26        03:38        03:50        04:03        04:15        04:27
e|-8-7--------|-8-7--------|-8-7--------|-8-7--------|-8-7--------|-8-7--------|
B|-----8--s---|-----8--s---|-----8--s---|-----8--s---|-----8--s---|-----8--s---|
G|-------7\-0-|-------7\-0-|-------7\-0-|-------7\-0-|-------7\-0-|-------7\-0-|
D|------------|------------|------------|------------|------------|------------|
A|------------|------------|------------|------------|------------|------------|
E|------------|------------|------------|------------|------------|------------|


-------------------------
05:20
CHORUS
*******
   Let every heart Let every tongue. Lift up Your name With all creation sing
e|---------|---------|---------|---------|---------|---------|---------|---------|
B|---------|---------|---------|---------|---------|---------|---------|---------|
G|---------|---------|-0-0-0-0-|-0-0-2-2-|-4-4-4-4-|-4-4-4-4-|-2-2-2-2-|-2-2-2-2-|
D|-2-2-2-2-|-2-2-4-4-|---------|---------|---------|---------|---------|---------|
A|---------|---------|---------|---------|---------|---------|---------|---------|
E|---------|---------|---------|---------|---------|---------|---------|---------|

   Let earth resound With Heaven's praise. And with one voice Let all creation sing
e|---------|---------|---------|---------|---------|---------|---------|-----------|
B|---------|---------|---------|---------|---------|---------|---------|-----------|
G|---------|---------|-0-0-0-0-|-0-0-2-2-|-4-4-4-4-|-4-4-4-4-|-2-2-2-2-|-2-2-2-2-0-|
D|-2-2-2-2-|-2-2-4-4-|---------|---------|---------|---------|---------|-----------|
A|---------|---------|---------|---------|---------|---------|---------|-----------|
E|---------|---------|---------|---------|---------|---------|---------|-----------|


-------------------------
OUTRO
******
  05:47          05:53          05:59          06:05
e|---7-5--------|---7-5--------|---7-5--------|---7-5--------|
B|-------8--s---|-------8--s---|-------8--s---|-------8--s---|
G|-0-------7\-0-|-0-------7\-0-|-0-------7\-0-|-0-------7\-0-|
D|--------------|--------------|--------------|--------------|
A|--------------|--------------|--------------|--------------|
E|--------------|--------------|--------------|--------------|            
Submit corrections


        Sing Out  lessons Hard to play? Try these video lessons and learn fast Sing Out  lessons
        
↑ Back to top | Tablatures and chords for acoustic guitar and electric guitar, ukulele, drums are parodies/interpretations of the original songs. You may use it for private study, scholarship, research or language learning purposes only