» » »

Jesus Culture - My Soul Longs For You Tabs

Artists:  A B C D E F G H I J K L M N O P Q R S T U V W X Y Z # 

My Soul Longs For You Tabs

(ver. 1) Click to play this song!
Jesus Culture
 Rating:
4/5 (9 votes)

 My Soul Longs For You lessons Tabs too difficult? Try these video lessons and learn fast
 
                Tuning: Standard

| /  slide up
| ~  let ring

All guitars tuned EADGBe
 {Gtr 1 - electric
 {Gtr 2 - electric


This song is pretty simple but really catchy. The beat and the guitar riff work together 
so well. Great worship song.

[Intro] Sounds great fingerpicked! Listen to the track to match how it's played; some 
notes are chopped off pretty quickly.
  {Gtr 1
e|--------------------------------------------------------------|
B|------1---1--0--------1---1--0--------------------------------|
G|---------------2---------------2-0----0--0---------0--0-------|
D|----2---------------2-----------------------------------------|
A|--0---------------0-------------------------8-7----------8-7--|
E|-----------------------------------/8------------8------------|

[Verse 1] Intro riff both times.

   My soul longs for you, my soul longs for you

   Nothing else will do, nothing else will do


[Verse 2] Intro riff first time, second time another guitar layer comes in.

   I believe you will come like the rain

Second time around have another guitar play this over the intro riff
  {Gtr 2
e|-------------------|      e|-------------------|
B|-------------------|      B|-------------------|
G|----2~---------0~--| x2   G|---------------0~--|
D|-------------3-----|      D|-------------3-----|
A|--0--------3-------|      A|--0~-------3-------|
E|-------------------|      E|-------------------|


[Chorus 1]
  {Gtr 2
                      F
You'll come like the rain
                      C
You'll come like the rain

  {Gtr 1
e|--------------------------------------|
B|--111111111111-3333-------------------|
G|--222222222222-2222-0000000000000000--|
D|--333333333333-3333-2222222222222222--|
A|--------------------3333333333333333--|
E|--------------------------------------|


[Chorus 2]
  {Gtr 2
       F
Let it rain
       C
Let it rain


Once the vocals stop and it's just instrumental, this comes in:
  {Gtr 1
e|--------------------------------------------|
B|--1010-10-10--1010-10-8~--55-5-5--55-5-5-8~-|
G|--x-x--x--x---x-x--x--x---xx-x-x--xx-x-x-x--|
D|--7-7--7--7---7-7--7--5~--22-2-2--22-2-2-5~-|
A|--------------------------------------------|
E|--------------------------------------------|

e|---------------------------------------------|
B|--1010-10-10--1010-10-12~--55-5-5--55555555--|
G|--x-x--x--x---x-x--x--x----xx-x-x--xxxxxxxx--|
D|--7-7--7--7---7-7--7--9~---22-2-2--22222222--|
A|---------------------------------------------|
E|---------------------------------------------|

[Outro]
  {Gtr 1
e|-----------------------------------|
B|--10~---8~--5~----10~---12~----5~--|
G|--x-----x---x-----x----------------|
D|--7~----5~--2~----7~---------------|
A|-----------------------------------|
E|-----------------------------------|


And that pretty much covers it. God bless. :)
            
Submit corrections


        My Soul Longs For You lessons Hard to play? Try these video lessons and learn fast My Soul Longs For You lessons
        
↑ Back to top | Tablatures and chords for acoustic guitar and electric guitar, ukulele, drums are parodies/interpretations of the original songs. You may use it for private study, scholarship, research or language learning purposes only