» » »

Jesus Culture - He Is Faithful Tabs

Artists:  A B C D E F G H I J K L M N O P Q R S T U V W X Y Z # 

He Is Faithful Tabs

(ver. 1) Click to play this song!
Jesus Culture
 Rating:
4.3/5 (15 votes)

 He Is Faithful lessons Tabs too difficult? Try these video lessons and learn fast
 
                00:15
INTRO
******
Distorted
   G                    G
e|-3-3-3-|------8-7---|-3-|------8-7---|
B|-3-3-3-|-8-10-----8-|-3-|-8-10-----8-|
G|-4-4-4-|------------|-4-|------------|
D|-5-5-5-|------------|-5-|------------|
A|-5-5-5-|------------|-5-|------------|
E|-3-3-3-|------------|-3-|------------|


-------------------------------
00:46                             D  Em C             D  Em C
e|---7-|-7----|----12-------s---|---------|---------|-----------------|
B|-----|------|--s----12--12\---|-7--8--5-|-----8-7-|-7--8--5-5-5-5-5-|
G|-7---|----9-|-9\------------9-|-7--9--5-|--s------|-7--9--5-5-5-5-5-|
D|-----|------|-----------------|-7--9--5-|-7\9-----|-7--9--5-5-5-5-5-|
A|-----|------|-----------------|-5--7--3-|---------|-5--7--3-3-3-3-3-|
E|-----|------|-----------------|----7----|---------|----7------------|


-------------------------------
RIFF 1
*******
01:17
e|-15-15-15-15-|-15-15-15-15-|-15-15-15-15-|-------------|
B|-------------|-------------|-------------|-15-15-15-15-|
G|-------------|-------------|-------------|-------------|
D|-------------|-------------|-------------|-------------|
A|-------------|-------------|-------------|-------------|
E|-------------|-------------|-------------|-------------|


e|-12-12-12-12-|-12-12-12-12-|-------------|-------------|
B|-------------|-------------|-13-13-13-13-|-12-12-12-12-|
G|-------------|-------------|-------------|-------------|
D|-------------|-------------|-------------|-------------|
A|-------------|-------------|-------------|-------------|
E|-------------|-------------|-------------|-------------|


e|-15-15-15-15-|-15-15-15-15-|-15-15-15-15-|-------------|
B|-------------|-------------|-------------|-15-15-15-15-|
G|-------------|-------------|-------------|-------------|
D|-------------|-------------|-------------|-------------|
A|-------------|-------------|-------------|-------------|
E|-------------|-------------|-------------|-------------|

                                                      s
e|-12-12-12-12-|-14-14-14-14-|-15-15-15-15-|-15-15-15-\-|
B|-------------|-------------|-------------|------------|
G|-------------|-------------|-------------|------------|
D|-------------|-------------|-------------|------------|
A|-------------|-------------|-------------|------------|Repeat RIFF 1
E|-------------|-------------|-------------|------------|Again


-------------------------------
02:07                                 D  Em C             D  Em C
e|---7-|-7----|----12-----------s---|---------|---------|-----------------|
B|-----|------|--s-------12---12\---|-7--8--5-|-----8-7-|-7--8--5-5-5-5-5-|
G|-7---|----9-|-9\----9-----------9-|-7--9--5-|--s------|-7--9--5-5-5-5-5-|
D|-----|------|---------------------|-7--9--5-|-7\9-----|-7--9--5-5-5-5-5-|
A|-----|------|---------------------|-5--7--3-|---------|-5--7--3-3-3-3-3-|
E|-----|------|---------------------|----7----|---------|----7------------|


-------------------------------
RIFF 1
*******
02:38
e|-15-15-15-15-|-15-15-15-15-|-15-15-15-15-|-------------|
B|-------------|-------------|-------------|-15-15-15-15-|
G|-------------|-------------|-------------|-------------|
D|-------------|-------------|-------------|-------------|
A|-------------|-------------|-------------|-------------|
E|-------------|-------------|-------------|-------------|


e|-12-12-12-12-|-12-12-12-12-|-------------|-------------|
B|-------------|-------------|-13-13-13-13-|-12-12-12-12-|
G|-------------|-------------|-------------|-------------|
D|-------------|-------------|-------------|-------------|
A|-------------|-------------|-------------|-------------|
E|-------------|-------------|-------------|-------------|


e|-15-15-15-15-|-15-15-15-15-|-15-15-15-15-|-------------|
B|-------------|-------------|-------------|-15-15-15-15-|
G|-------------|-------------|-------------|-------------|
D|-------------|-------------|-------------|-------------|
A|-------------|-------------|-------------|-------------|
E|-------------|-------------|-------------|-------------|

                                                      s
e|-12-12-12-12-|-14-14-14-14-|-15-15-15-15-|-15-15-15-\-|
B|-------------|-------------|-------------|------------|
G|-------------|-------------|-------------|------------|
D|-------------|-------------|-------------|------------|
A|-------------|-------------|-------------|------------|Repeat RIFF 1
E|-------------|-------------|-------------|------------|Again


-------------------------------
03:08
   G                G
e|-3-|------8-7---|-3-|------8-7---|
B|-3-|-8-10-----8-|-3-|-8-10-----8-|
G|-4-|------------|-4-|------------|
D|-5-|------------|-5-|------------|
A|-5-|------------|-5-|------------|
E|-3-|------------|-3-|------------|


-------------------------------
RIFF 2
*******
03:24
e|---------|---------|---------|---------|---------|---------|---------|-----br-|
B|---------|---------|---------|---------|---------|---------|---------|-----7--|
G|-9-9-9-7-|-9-9-9-7-|-----7-7-|---------|-9-9-9-7-|-9-9-9-7-|-----7-7-|--------|
D|---------|---------|-9-9-----|-7-7-7-7-|---------|---------|-9-9-----|-7-7----|
A|---------|---------|---------|---------|---------|---------|---------|--------|
E|---------|---------|---------|---------|---------|---------|---------|--------|

                                                                               br
e|---------|---------|---------|---------|---------|---------|---------|------14-|
B|---------|---------|---------|---------|---------|---------|---------|---------|
G|-9-9-9-7-|-9-9-9-7-|-----7-7-|---------|-9-9-9-7-|-9-9-9-7-|-----7-7-|---------|
D|---------|---------|-9-9-----|-7-7-7-7-|---------|---------|-9-9-----|-7-7-----|
A|---------|---------|---------|---------|---------|---------|---------|---------|
E|---------|---------|---------|---------|---------|---------|---------|---------|

03:54                                                                                                      br
e|-12-12-12-10-|-12-12-12-10-|-------10-10-|-------------|-12-12-12-10-|-12-12-12-10-|-------10-10|-------14-|
B|-------------|-------------|-12-12-------|-10-10-10-10-|-------------|-------------|-12-12------|-10-10----|
G|-------------|-------------|-------------|-------------|-------------|-------------|------------|----------|
D|-------------|-------------|-------------|-------------|-------------|-------------|------------|----------|
A|-------------|-------------|-------------|-------------|-------------|-------------|------------|----------|
E|-------------|-------------|-------------|-------------|-------------|-------------|------------|--------X2|

and finish on this
e|-12-12-12-10-|-12-12-12-10-|----|
B|-------------|-------------|-12-|
G|-------------|-------------|----|
D|-------------|-------------|----|
A|-------------|-------------|----|
E|-------------|-------------|----|


Comes back in on
07:06
e|-12-12-12-10-|-12-12-12-10-|-------10-10-|-------------|-12-12-12-10-|-12-12-12-10-|-------10-10|-------14-|
B|-------------|-------------|-12-12-------|-10-10-10-10-|-------------|-------------|-12-12------|-10-10----|
G|-------------|-------------|-------------|-------------|-------------|-------------|------------|----------|
D|-------------|-------------|-------------|-------------|-------------|-------------|------------|----------|
A|-------------|-------------|-------------|-------------|-------------|-------------|------------|----------|
E|-------------|-------------|-------------|-------------|-------------|-------------|------------|----------|


e|-12-12-12-10-|-12-12-12-10-|-------10-10-|-------------|-12-|
B|-------------|-------------|-12-12-------|-10-10-10-10-|----|
G|-------------|-------------|-------------|-------------|----|
D|-------------|-------------|-------------|-------------|----|
A|-------------|-------------|-------------|-------------|----|
E|-------------|-------------|-------------|-------------|----|
            
Submit corrections


        He Is Faithful lessons Hard to play? Try these video lessons and learn fast He Is Faithful lessons
        
↑ Back to top | Tablatures and chords for acoustic guitar and electric guitar, ukulele, drums are parodies/interpretations of the original songs. You may use it for private study, scholarship, research or language learning purposes only