» » »

Jesus Culture - Happy Day Bass

Artists:  A B C D E F G H I J K L M N O P Q R S T U V W X Y Z # 

Happy Day Bass

(ver. 1) Click to play this song!
Jesus Culture
 Rating:
4.4/5 (8 votes)

 Happy Day lessons Tabs too difficult? Try these video lessons and learn fast
 
                [Intro]
G|---------------------------------------------------------------------------|
D|---------------------------------------------------------------------------|
A|----------------5------3---------------------------------------------------|
E|--1------6-----------------------------------------------------------------| 2x 

[Verse]
G|---------------------------------------------------------------------------|
D|---------------------------------------------------------------------------|
A|----------------5------1---------------------------------------------------|
E|--1------6-----------------------------------------------------------------|

G|---------------------------------------------------------------------------|
D|---------------------------------------------------------------------------|
A|----------------5------1---3-----------------------------------------------|
E|--1------6-----------------------------------------------------------------|

[Chorus]
G|---------------------------------------------------------------------------|
D|---------------------------------------------------------------------------|
A|----------------5------3---------------------------------------------------|
E|--1------6-----------------------------------------------------------------| 4x 

[Verse]
G|---------------------------------------------------------------------------|
D|---------------------------------------------------------------------------|
A|----------------5------1---------------------------------------------------|
E|--1------6-----------------------------------------------------------------|

G|---------------------------------------------------------------------------|
D|---------------------------------------------------------------------------|
A|----------------5------1---3-----------------------------------------------|
E|--1------6-----------------------------------------------------------------|

[Chorus]
G|---------------------------------------------------------------------------|
D|---------------------------------------------------------------------------|
A|----------------5------3---------------------------------------------------|
E|--1------6-----------------------------------------------------------------| 4x 

[Bridge]
G|---------------------------------------------------------------------------|
D|---------------------------------------------------------------------------| 
A|--5------0------1------8------5------0------1------8-----------------------|
E|---------------------------------------------------------------------------| 2x

[Chorus]
G|---------------------------------------------------------------------------|
D|---------------------------------------------------------------------------|
A|----------------5------3---------------------------------------------------|
E|--1------6-----------------------------------------------------------------| 4x 

[Bridge]
G|---------------------------------------------------------------------------|
D|---------------------------------------------------------------------------| 
A|--5------0------1------8------5------0------1------8-----------------------|
E|---------------------------------------------------------------------------| 2x

G|------------------|---------------5-|-----5---5-7-----|----5---5-7---------|
D|------3---3-5-----|-----3---3-5-7---|-7-7---7-----5-7-|7-7---7-----5-7-----|
A|--5-5---5-----3-5-|-5-5---5---------|-----------------|--------------------|
E|------------------|-----------------|-----------------|--------------------|

G|------------------|-----------------|-----------------|--------------------|
D|--8-8-8-8-8-8-8-8-|-----------------|-------7-7-7-----|---7-7-7------------|
A|------------------|-----------------|-8-8-8-------7-7-|-7-------8-8-7-7----|
E|------------------|-6-6-6-6-6-6-6-6-|-----------------|--------------------|

G|------------------|---------------5-|-----5---5-7-----|----5---5-7---------|
D|------3---3-5-----|-----3---3-5-7---|-7-7---7-----5-7-|7-7---7-----5-7-----|
A|--5-5---5-----3-5-|-5-5---5---------|-----------------|--------------------|
E|------------------|-----------------|-----------------|--------------------|

G|------------------|-----------------|-----------------|--------------------|
D|--8-8-8-8-8-8-8-8-|-----------------|-----------------|--------------------|
A|------------------|-----------------|-8-8-8-8-8-8-8-8-|-8-8-8-8-8-8-8-8----|
E|------------------|-6-6-6-6-6-6-6-6-|-----------------|--------------------|

[Chorus]
G|---------------------------------------------------------------------------|
D|---------------------------------------------------------------------------|
A|----------------5------3---------------------------------------------------|
E|--1------6-----------------------------------------------------------------| 4x             
Submit corrections


        Happy Day lessons Hard to play? Try these video lessons and learn fast Happy Day lessons
        
↑ Back to top | Tablatures and chords for acoustic guitar and electric guitar, ukulele, drums are parodies/interpretations of the original songs. You may use it for private study, scholarship, research or language learning purposes only