» » »

Jesus Culture - God With Us Tabs

Artists:  A B C D E F G H I J K L M N O P Q R S T U V W X Y Z # 

God With Us Tabs

(ver. 1) Click to play this song!
Jesus Culture
 Rating:
4.3/5 (13 votes)

 God With Us lessons Tabs too difficult? Try these video lessons and learn fast
 
                INTRO
******
e|---------|---------|---------------------------|
B|---------|---------|---------------------------|
G|---------|---------|-s-----------------------s-|
D|-9-9-9-9-|-6-6-6-6-|-\13-13-13-13-13-13-13-13\-|
A|---------|---------|---------------------------|
E|---------|---------|---------------------------|X2


------------------------------
00:13
VERSE 1
********
  You are matchless...................
e|---------|---------|---------------------------|---------|---------|--------------------------|
B|---------|---------|---------------------------|---------|---------|--------------------------|
G|---------|---------|-s-----------------------s-|---------|---------|-s------------------------|
D|-9-9-9-9-|-6-6-6-6-|-\13-13-13-13-13-13-13-13\-|-9-9-9-9-|-6-6-6-6-|-\13-13-13-13-11-11-11-11-|
A|---------|---------|---------------------------|---------|---------|--------------------------|
E|---------|---------|---------------------------|---------|---------|--------------------------|


e|---------|---------|--------------------------|---------|---------|-----------------|
B|---------|---------|--------------------------|---------|---------|-----------------|
G|---------|---------|-s------------------------|---------|---------|-s---------------|
D|-9-9-9-9-|-6-6-6-6-|-\13-13-13-13-11-11-11-11-|-9-9-9-9-|-6-6-6-6-|-\13-13-13-13-13-|
A|---------|---------|--------------------------|---------|---------|-----------------|
E|---------|---------|--------------------------|---------|---------|-----------------|


------------------------------
00:39
VERSE 2
********
  You're the healer......................
e|---------|---------|---------------------------|---------|---------|--------------------------|
B|---------|---------|---------------------------|---------|---------|--------------------------|
G|---------|---------|-s-----------------------s-|---------|---------|-s------------------------|
D|-9-9-9-9-|-6-6-6-6-|-\13-13-13-13-13-13-13-13\-|-9-9-9-9-|-6-6-6-6-|-\13-13-13-13-11-11-11-11-|
A|---------|---------|---------------------------|---------|---------|--------------------------|
E|---------|---------|---------------------------|---------|---------|--------------------------|


e|---------|---------|--------------------------|---------|---------|-------------------------|
B|---------|---------|--------------------------|---------|---------|-------------------------|
G|---------|---------|-s------------------------|---------|---------|-s-----------------------|
D|-9-9-9-9-|-6-6-6-6-|-\13-13-13-13-11-11-11-11-|-9-9-9-9-|-6-6-6-6-|-\13-13-13-13-13-13-13-13|
A|---------|---------|--------------------------|---------|---------|-------------------------|
E|---------|---------|--------------------------|---------|---------|-------------------------|

  For eternity we will sing...........
e|---------|---------|-----------------------|
B|---------|---------|-----------------------|
G|---------|---------|-s---------------------|
D|-9-9-9-9-|-6-6-6-6-|-\13-13-13-13-13-13-13-|
A|---------|---------|-----------------------|
E|---------|---------|-----------------------|


------------------------------
01:11
CHORUS
*******
  God with us..........
e|-----------------|-----------------|-----------------|------------s------|
B|-----------------|-----------------|-----------------|-9-9-9-9-9-9\12-12-|
G|-8-8-8-8-8-8-6-6-|-8-8-8-8-8-8-9-9-|-8-8-8-8-8-8-6-6-|-------------------|
D|-----------------|-----------------|-----------------|-------------------|
A|-----------------|-----------------|-----------------|-------------------|
E|-----------------|-----------------|-----------------|-------------------|

  God with us..........
e|-----------------|-----------------|-----------------|------|
B|-----------------|-----------------|-----------------|-9~~~-|
G|-8-8-8-8-8-8-6-6-|-8-8-8-8-8-8-9-9-|-8-8-8-8-8-8-6-6-|------|
D|-----------------|-----------------|-----------------|------|
A|-----------------|-----------------|-----------------|------|
E|-----------------|-----------------|-----------------|------|


------------------------------
01:37
BREAK
******
e|---------|---------|---------------------------|
B|---------|---------|---------------------------|
G|---------|---------|-s-----------------------s-|
D|-9-9-9-9-|-6-6-6-6-|-\13-13-13-13-13-13-13-13\-|
A|---------|---------|---------------------------|
E|---------|---------|---------------------------|X2


------------------------------
01:50
VERSE 3
********
  Your heart, it moves.............
e|---------|---------|---------------------------|---------|---------|--------------------------|
B|---------|---------|---------------------------|---------|---------|--------------------------|
G|---------|---------|-s-----------------------s-|---------|---------|-s------------------------|
D|-9-9-9-9-|-6-6-6-6-|-\13-13-13-13-13-13-13-13\-|-9-9-9-9-|-6-6-6-6-|-\13-13-13-13-11-11-11-11-|
A|---------|---------|---------------------------|---------|---------|--------------------------|
E|---------|---------|---------------------------|---------|---------|--------------------------|


e|---------|---------|--------------------------|---------|---------|-------------------------|
B|---------|---------|--------------------------|---------|---------|-------------------------|
G|---------|---------|-s------------------------|---------|---------|-s-----------------------|
D|-9-9-9-9-|-6-6-6-6-|-\13-13-13-13-11-11-11-11-|-9-9-9-9-|-6-6-6-6-|-\13-13-13-13-13-13-13-13|
A|---------|---------|--------------------------|---------|---------|-------------------------|
E|---------|---------|--------------------------|---------|---------|-------------------------|


------------------------------
02:16
CHORUS
*******
  God with us..........
e|-----------------|-----------------|-----------------|------------s------|
B|-----------------|-----------------|-----------------|-9-9-9-9-9-9\12-12-|
G|-8-8-8-8-8-8-6-6-|-8-8-8-8-8-8-9-9-|-8-8-8-8-8-8-6-6-|-------------------|
D|-----------------|-----------------|-----------------|-------------------|
A|-----------------|-----------------|-----------------|-------------------|
E|-----------------|-----------------|-----------------|-------------------|

  God with us..........
e|-----------------|-----------------|-----------------|------|
B|-----------------|-----------------|-----------------|-9~~~-|
G|-8-8-8-8-8-8-6-6-|-8-8-8-8-8-8-9-9-|-8-8-8-8-8-8-6-6-|------|
D|-----------------|-----------------|-----------------|------|
A|-----------------|-----------------|-----------------|------|
E|-----------------|-----------------|-----------------|------|

  No one can stand
e|-----------------|-----------------|-----------------|------------s--------|
B|-----------------|-----------------|-----------------|-9-9-9-9-9-9\12-12~~-|
G|-8-8-8-8-8-8-6-6-|-8-8-8-8-8-8-9-9-|-8-8-8-8-8-8-6-6-|---------------------|
D|-----------------|-----------------|-----------------|---------------------|
A|-----------------|-----------------|-----------------|---------------------|
E|-----------------|-----------------|-----------------|---------------------|


------------------------------
BRIDGE
*******
                    03:40
  And You lifted me up                                
e|------------------|-----------------|-------------------------|
B|------------------|-9-9-9-9-9-9-9-9-|-11-11-11-11-11-11-11-11-|
G|------------------|-----------------|-------------------------|
D|------------------|-----------------|-------------------------|
A|------------------|-----------------|-------------------------|
E|------------------|-----------------|-------------------------|

03:47
e|------------s-------s------------------------|
B|-12-12-12-12\7-7-7-7\16-16-16-16-14-14-14-14-|
G|---------------------------------------------|
D|---------------------------------------------|
A|---------------------------------------------|
E|---------------------------------------------|X3

04:06                                                                                                     s
e|-------11-------|-------11----14-|-------11-------|-------11----14--16-|-------11-------|-------11----14\-|
B|-12-12----14-12-|-12-12----14----|-12-12----14-12-|-12-12----14--------|-12-12----14-12-|-12-12----14-----|
G|----------------|----------------|----------------|--------------------|----------------|-----------------|
D|----------------|----------------|----------------|--------------------|----------------|-----------------|
A|----------------|----------------|----------------|--------------------|----------------|-----------------|
E|----------------|----------------|----------------|--------------------|----------------|-----------------|


------------------------------
04:26
CHORUS
*******
  God with us..........
e|-----------------|-----------------|-----------------|------------s------|
B|-----------------|-----------------|-----------------|-9-9-9-9-9-9\12-12-|
G|-8-8-8-8-8-8-6-6-|-8-8-8-8-8-8-9-9-|-8-8-8-8-8-8-6-6-|-------------------|
D|-----------------|-----------------|-----------------|-------------------|
A|-----------------|-----------------|-----------------|-------------------|
E|-----------------|-----------------|-----------------|-------------------|X4
            
Submit corrections


        God With Us lessons Hard to play? Try these video lessons and learn fast God With Us lessons
        
↑ Back to top | Tablatures and chords for acoustic guitar and electric guitar, ukulele, drums are parodies/interpretations of the original songs. You may use it for private study, scholarship, research or language learning purposes only