» » »

Jesus Culture - Freedom Tabs

Artists:  A B C D E F G H I J K L M N O P Q R S T U V W X Y Z # 

Freedom Tabs

(ver. 1) Click to play this song!
Jesus Culture
 Rating:
4.3/5 (26 votes)

 Freedom lessons Tabs too difficult? Try these video lessons and learn fast
 
                [Intro]
e|---------12--15---------------------|
B|-12--15----------12--15--15--13--12-|
G|------------------------------------|
D|------------------------------------| x4
A|------------------------------------|
E|------------------------------------|


[First Verse]
Em C G Bm
Em C D Bm

[Pre-Chorus]
e|----------------3--|--3--|--2--3--2-------|
B|----------------3--|--3--|--3-------3-----|
G|----------------0--|--0--|--2----------2--|
D|----0--0-----0-----|--2--|--0-------------| x2
A|-2--------3--------|--2--|--0-------------|
E|-------------------|--0--|----------------|


[First Chorus]
Chords, 4 counts each
C G  Em D x2

e|----------------------------------------|-------------------------------|
B|-----15-------15-------15-------15------|-----15-------15-------15------|
G|-12-------12-------12-------12------14~-|-12-------12-------12------14~-|
D|----------------------------------------|-------------------------------|
A|----------------------------------------|-------------------------------|
E|----------------------------------------|-------------------------------|


[Repeat Intro]
e|---------12--15---------------------|
B|-12--15----------12--15--15--13--12-|
G|------------------------------------|
D|------------------------------------| x4
A|------------------------------------|
E|------------------------------------|

[Second Verse]
e|-----------------------|------------------|
B|-12-12--------13~--12~-|-12-12-----15-----|
G|--------14-12----------|--------12----14~-|
D|-----------------------|------------------|
A|-----------------------|------------------|
E|-----------------------|------------------|


[Pre-Chorus]
e|----------------3--|--3--|--2--3--2-------|
B|----------------3--|--3--|--3-------3-----|
G|----------------0--|--0--|--2----------2--|
D|----0--0-----0-----|--2--|--0-------------| x2
A|-2--------3--------|--2--|--0-------------|
E|-------------------|--0--|----------------|


[Chorus]
e|-19-19-19-15-------------|    |-17-17-17-14-------------|
B|-------------15----15----|    |-------------15----15----|
G|----------------17----17-|    |----------------17----17-| 
D|-------------------------| x2 |-------------------------| x2
A|-------------------------|    |-------------------------|
E|-------------------------|    |-------------------------|

[Bridge]x2
Chords
G\B C Em D
G\B C Em D

[Intro]
e|---------12--15---------------------|
B|-12--15----------12--15--15--13--12-|
G|------------------------------------|
D|------------------------------------| x4
A|------------------------------------|
E|------------------------------------|

[Chorus]
e|-19-19-19-15-------------|    |-17-17-17-14-------------|
B|-------------15----15----|    |-------------15----15----|
G|----------------17----17-|    |----------------17----17-| 
D|-------------------------| x2 |-------------------------| x2
A|-------------------------|    |-------------------------|
E|-------------------------|    |-------------------------|

[Intro]
e|---------12--15---------------------|
B|-12--15----------12--15--15--13--12-|
G|------------------------------------|
D|------------------------------------| x4
A|------------------------------------|
E|------------------------------------|

[Pre-Chorus]
e|----------------3--|--3--|--2--3--2-------|
B|----------------3--|--3--|--3-------3-----|
G|----------------0--|--0--|--2----------2--|
D|----0--0-----0-----|--2--|--0-------------| x2
A|-2--------3--------|--2--|--0-------------|
E|-------------------|--0--|----------------|

[Chorus]
e|-19-19-19-15-------------|    |-17-17-17-14-------------|
B|-------------15----15----|    |-------------15----15----|
G|----------------17----17-|    |----------------17----17-| 
D|-------------------------| x2 |-------------------------| x2
A|-------------------------|    |-------------------------|
E|-------------------------|    |-------------------------|

[Intro]
e|---------12--15---------------------|
B|-12--15----------12--15--15--13--12-|
G|------------------------------------|
D|------------------------------------| x4
A|------------------------------------|
E|------------------------------------|

            
Submit corrections


        Freedom lessons Hard to play? Try these video lessons and learn fast Freedom lessons
        
↑ Back to top | Tablatures and chords for acoustic guitar and electric guitar, ukulele, drums are parodies/interpretations of the original songs. You may use it for private study, scholarship, research or language learning purposes only