» » »

Jesus Culture - Everything And Nothing Less Tabs

Artists:  A B C D E F G H I J K L M N O P Q R S T U V W X Y Z # 

Everything And Nothing Less Tabs

(ver. 1) Click to play this song!
Jesus Culture
 Rating:
4.3/5 (19 votes)

 Everything And Nothing Less  lessons Tabs too difficult? Try these video lessons and learn fast
 
                -------------------------
INTRO
******
e|---------|---------|---------|---------|
B|-0-------|-0-------|-0-------|-0-------|
G|-----0-2-|-----0---|-----0-2-|-----0---|
D|---2-----|---2---4-|---2-----|---2---4-|
A|---------|---------|---------|---------|
E|---------|---------|---------|---------|


-------------------------
00:28
VERSE 1
********
   Humbly I stand   an offering  With open hands  Lord I bring
e|----------------|-------------|---------------|---------|
B|-0--------------|-0-----------|-0-------------|-0-------|
G|-----0-2--------|-----0-------|-----0-2-------|-----0---|
D|---2------------|---2---4---2-|---2-----------|---2---4-|
A|----------------|-------------|---------------|---------|
E|----------------|-------------|---------------|---------|

Everything and nothing less       My best, my all    You deserve my every  breath    My life, my song
e|---------------------|---------|------------|-----|---------------------|---------|------------|---------|
B|---------------------|---------|------------|-3---|---------------------|---------|------------|-3---3---|
G|---------------------|-5---5---|----4---4---|-2---|---------------------|-5---5---|----4---4---|---------|
D|---------------------|---2---2-|------2---2-|-0-0-|---------------------|---2---2-|------2---2-|---4---4-|
A|---------------------|---------|------------|-----|---------------------|---------|------------|---------|
E|---------------------|---------|------------|-----|---------------------|---------|------------|---------|


-------------------------
01:22
CHORUS
*******
   I     surrender   I    surrender all
e|-8-8-8-7-7-7-7-7-|-8-8-8-7-7-7-7-7-|-----------------|--------------------|
B|-----------------|-----------------|-8-8-8-7-7-7-7-7-|-8-8-8-10-10-10-----|
G|-----------------|-----------------|-----------------|----------------7-7-|
D|-----------------|-----------------|-----------------|--------------------|
A|-----------------|-----------------|-----------------|--------------------|
E|-----------------|-----------------|-----------------|--------------------|

   I     surrender   I    surrender all               Jesus
e|-8-8-8-7-7-7-7-7-|-8-8-8-7-7-7-7-7-|-------------------|
B|-----------------|-----------------|-8-8-8-7-7-7-7-7-7-|
G|-----------------|-----------------|-------------------|
D|-----------------|-----------------|-------------------|
A|-----------------|-----------------|-------------------|
E|-----------------|-----------------|-------------------|


-------------------------
01:49
BREAK
******
e|---------|-----------|
B|-0-------|-0---------|
G|-----0-2-|-----0-----|
D|---2-----|---2---4-2-|
A|---------|-----------|
E|---------|-----------|


-------------------------
02:03
VERSE 2
********
   Lord take control  I trust You   I'm letting go, to give You
e|-------------------|-------------|---------------|---------|
B|-0-----------------|-0-----------|-0-------------|-0-------|
G|-----0-2-----------|-----0-------|-----0-2-------|-----0---|
D|---2---------------|---2---4---2-|---2-----------|---2---4-|
A|-------------------|-------------|---------------|---------|
E|-------------------|-------------|---------------|---------|

Everything and nothing less       My best, my all        You deserve my every  breath    My life, my song
e|--------------------|---------|------------|---------|--------------------|---------|------------|---------|
B|--------------------|---------|------------|-3---3---|--------------------|---------|------------|-3---3---|
G|--------------------|-5---5---|----4---4---|---------|--------------------|-5---5---|----4---4---|---------|
D|--------------------|---2---2-|------2---2-|---4---4-|--------------------|---2---2-|------2---2-|---4---4-|
A|--------------------|---------|------------|---------|--------------------|---------|------------|---------|
E|--------------------|---------|------------|---------|--------------------|---------|------------|---------|


-------------------------
02:57
CHORUS
*******
   I     surrender   I    surrender all
e|-8-8-8-7-7-7-7-7-|-8-8-8-7-7-7-7-7-|-----------------|--------------------|
B|-----------------|-----------------|-8-8-8-7-7-7-7-7-|-8-8-8-10-10-10-----|
G|-----------------|-----------------|-----------------|----------------7-7-|
D|-----------------|-----------------|-----------------|--------------------|
A|-----------------|-----------------|-----------------|--------------------|
E|-----------------|-----------------|-----------------|--------------------|

   I     surrender   I    surrender all               
e|-8-8-8-7-7-7-7-7-|-8-8-8-7-7-7-7-7-|-----------------|--------------------|
B|-----------------|-----------------|-8-8-8-7-7-7-7-7-|-8-8-8-10-10-10-----|
G|-----------------|-----------------|-----------------|----------------7-7-|
D|-----------------|-----------------|-----------------|--------------------|
A|-----------------|-----------------|-----------------|--------------------|
E|-----------------|-----------------|-----------------|--------------------|

   I     surrender   I    surrender all               
e|-8-8-8-7-7-7-7-7-|-8-8-8-7-7-7-7-7-|-----------------|--------------------|
B|-----------------|-----------------|-8-8-8-7-7-7-7-7-|-8-8-8-10-10-10-----|
G|-----------------|-----------------|-----------------|----------------7-7-|
D|-----------------|-----------------|-----------------|--------------------|
A|-----------------|-----------------|-----------------|--------------------|
E|-----------------|-----------------|-----------------|--------------------|

   I     surrender   I    surrender all               
e|-8-8-8-7-7-7-7-7-|-8-8-8-7-7-7-7-7-|-----------------|------------------s-|
B|-----------------|-----------------|-8-8-8-7-7-7-7-7-|-8-8-8-10-10-10-10\-|
G|-----------------|-----------------|-----------------|--------------------|
D|-----------------|-----------------|-----------------|--------------------|
A|-----------------|-----------------|-----------------|--------------------|
E|-----------------|-----------------|-----------------|--------------------|


-------------------------
03:51
BRIDGE
*******
  Everything and nothing less         I give You  everything and nothing less       Forever  
e|----------------------------|------------------|----------------------------|---------------|
B|-----br------br-------------|------------------|----------------------------|---------------|
G|-----4-------4--------------|-----2--------2---|-----0--------0-------------|-----br-----br-|
D|----------------------------|-0-0---0--0-0---0-|-2-2---2--2-2---2-----------|-----4------4--|
A|-3-3-----3-3----------------|------------------|----------------------------|---------------|
E|----------------------------|------------------|----------------------------|-3-3----3-3----|

  Everything and nothing less       Oh, my life is Yours, completely Yours
e|----------------------------|------------------|----------------------------|---------------|
B|-----br------br-------------|------------------|----------------------------|---------------|
G|-----4-------4--------------|-----2--------2---|-----0--------0-------------|-----br-----br-|
D|----------------------------|-0-0---0--0-0---0-|-2-2---2--2-2---2-----------|-----4------4--|
A|-3-3-----3-3----------------|------------------|----------------------------|---------------|
E|----------------------------|------------------|----------------------------|-3-3----3-3----|

04:18
  Everything and nothing less         
       br     br                     I give You     everything and nothing less   Forever
e|-----7------7---------------|--------------------|------------------|-------------------|
B|----------------------------|-----10--------10---|-----8--------8---|----------------br-|
G|-7-7----7-7-----------------|-7-7----7--7-7----7-|-9-9---9--9-9---9-|-----11--------11--|
D|----------------------------|--------------------|------------------|-9-9----9--9-9-----|
A|----------------------------|--------------------|------------------|-------------------|
E|----------------------------|--------------------|------------------|-------------------|

  Everything and nothing less         
       br     br                     Oh, my life is Yours, completely Yours
e|-----7------7---------------|--------------------|------------------|--------------------|
B|----------------------------|-----10--------10---|-----8--------8---|-----7--------7---8-|
G|-7-7----7-7-----------------|-7-7----7--7-7----7-|-9-9---9--9-9---9-|-7-7---7--7-7---7---|
D|----------------------------|--------------------|------------------|--------------------|
A|----------------------------|--------------------|------------------|--------------------|
E|----------------------------|--------------------|------------------|--------------------|


-------------------------
Comes Back In
05:25
CHORUS
*******
   I     ohhhhhhhhhhhhhhhhhhhhhhhhhhhhhh
e|-8-8-8-7-7-7-7-7-|-8-8-8-7-7-7-7-7-|-----------------|---------------------|
B|-----------------|-----------------|-8-8-8-7-7-7-7-7-|-8-8-8-10-10-10---10-|
G|-----------------|-----------------|-----------------|----------------7----|
D|-----------------|-----------------|-----------------|---------------------|
A|-----------------|-----------------|-----------------|---------------------|
E|-----------------|-----------------|-----------------|---------------------|

   I     ahhhhhhhh   I'll    give you all of me               
e|-8-8-8-7-7-7-7-7-|-8-8-8-7-7-7-7-7-|-----------------|--------------------|
B|-----------------|-----------------|-8-8-8-8-7-7-7-7-|-8-8-8-8-10-10---10-|
G|-----------------|-----------------|-----------------|---------------7----|
D|-----------------|-----------------|-----------------|--------------------|
A|-----------------|-----------------|-----------------|--------------------|
E|-----------------|-----------------|-----------------|--------------------|

   I     ahhhhhhhh   I    surrender all               
e|-8-8-8-8-7-7-7-7-|-8-8-8-8-7-7-7-7-|-----------------|--------------------|
B|-----------------|-----------------|-8-8-8-8-7-7-7-7-|-8-8-8-8-10-10---10-|
G|-----------------|-----------------|-----------------|---------------7----|
D|-----------------|-----------------|-----------------|--------------------|
A|-----------------|-----------------|-----------------|--------------------|
E|-----------------|-----------------|-----------------|--------------------|

   I     surrender   I    surrender all               
e|-8-8-8-8-7-7-7-7-|-8-8-8-10-7-7-7-7-|-----------------|-------------------|
B|-----------------|------------------|-8-8-8-8-7-7-7-7-|-8-8-8-8-10-10-----|
G|-----------------|------------------|-----------------|---------------7-7-|
D|-----------------|------------------|-----------------|-------------------|
A|-----------------|------------------|-----------------|-------------------|
E|-----------------|------------------|-----------------|-------------------|
06:33
   I     surrender   I    surrender all               
e|-8-8-8-8-7-7-7-7-|-8-8-8-10-7-7-7-7-|-----------------|-------------|
B|-----------------|------------------|-8-8-8-8-7-7-7-7-|-8-8-8-10-10-|
G|-----------------|------------------|-----------------|-------------|
D|-----------------|------------------|-----------------|-------------|
A|-----------------|------------------|-----------------|-------------|
E|-----------------|------------------|-----------------|-------------|            
Submit corrections


        Everything And Nothing Less  lessons Hard to play? Try these video lessons and learn fast Everything And Nothing Less  lessons
        
↑ Back to top | Tablatures and chords for acoustic guitar and electric guitar, ukulele, drums are parodies/interpretations of the original songs. You may use it for private study, scholarship, research or language learning purposes only