» » »

Jesus Culture - Dance With Me Tabs

Artists:  A B C D E F G H I J K L M N O P Q R S T U V W X Y Z # 

Dance With Me Tabs

(ver. 1) Click to play this song!
Jesus Culture
 Rating:
4.4/5 (14 votes)

 Dance With Me lessons Tabs too difficult? Try these video lessons and learn fast
 
                e|----------------------------------------------------------------------------------|
B|-8-10----------------------8-10---------------------------------------------------|
G|------9-------9--7----7\5-------9-----9v--9-9--7---7/9--9--9-9--------------------|
D|-----------10---------------------------------------------------------------------|
A|----------------------------------------------------------------------------------|
E|----------------------------------------------------------------------------------|


e|----------------------------------------------------------------------------------|
B|----------------------------------------------------------------------------------|
G|--------------/7--7-7--4----4/9-9---------------/7--7-7--4----4--4--4-4-4---------|
D|-7--7-7-7--7----------------------7--7--7--7-7-------------------------------2-5--|
A|--------------------------------------------------------------------2-2-2---------|
E|----------------------------------------------------------------------------------|


e|----------------------------------------------------------------------------------|
B|-----8---------------------------8----------8-8-8-8-8-8---------------------------|
G|---5--------5h7-4-----9-9-9----5---5---5-7--7-7-7-7-7-7---------------------------|
D|-7-------7----------/7-7-----7-------7------5-5-5-5-5-5---------------------------|
A|----------------------------------------------------------------------------------|
E|----------------------------------------------------------------------------------|
            
Submit corrections


        Dance With Me lessons Hard to play? Try these video lessons and learn fast Dance With Me lessons
        
↑ Back to top | Tablatures and chords for acoustic guitar and electric guitar, ukulele, drums are parodies/interpretations of the original songs. You may use it for private study, scholarship, research or language learning purposes only