» » »

Jesus Culture - Dance Tabs

Artists:  A B C D E F G H I J K L M N O P Q R S T U V W X Y Z # 

Dance Tabs

(ver. 1) Click to play this song!
Jesus Culture
 Rating:
3.3/5 (29 votes)

 Dance lessons Tabs too difficult? Try these video lessons and learn fast
 
                C#m                  A                  B               F#m

e|-12----------12-14----------14-12----12----------14-17--16------14---------|
B|-----14-------------14------------16-----16-----------------17-----17-16---|
G|---------13-------------14-------------------14----------------------------|
D|---------------------------------------------------------------------------|
A|---------------------------------------------------------------------------|
E|---------------------------------------------------------------------------|

Or if you prefer, one octave down:

C#m             A               B          F#m
e|-0--------0-2--------2-----0--------2-5--4-----2---------------------------|
B|----2----------2-------5-4----4-------------5----5-4-----------------------|
G|-------1----------2--------------2-----------------------------------------|
D|---------------------------------------------------------------------------|
A|---------------------------------------------------------------------------|
E|---------------------------------------------------------------------------|            
Submit corrections


        Dance lessons Hard to play? Try these video lessons and learn fast Dance lessons
        
↑ Back to top | Tablatures and chords for acoustic guitar and electric guitar, ukulele, drums are parodies/interpretations of the original songs. You may use it for private study, scholarship, research or language learning purposes only