» » »

Jesus Culture - Born Of God Tabs

Artists:  A B C D E F G H I J K L M N O P Q R S T U V W X Y Z # 

Born Of God Tabs

(ver. 1) Click to play this song!
Jesus Culture
 Rating:
4.4/5 (17 votes)

 Born Of God  lessons Tabs too difficult? Try these video lessons and learn fast
 
                NTRO
******
e|------------|---------------|------------|---------------|------------|
B|---7-8------|---7-8---------|---7-8------|---7-8---------|---7-8------|
G|-7--------7-|-7--------7----|-7--------7-|-7--------7----|-7--------7-|
D|-------9----|-------9-----7-|-------9----|-------9-----7-|-------9----|
A|------------|---------------|------------|---------------|------------|
E|------------|---------------|------------|---------------|------------|


---------------------------
00:20
VERSE 1
********

  00:34        00:42
e|------------|---------------|
B|---7-8------|---7-8---------|
G|-7--------7-|-7--------7----|
D|-------9----|-------9-----7-|
A|------------|---------------|
E|------------|---------------|


---------------------------
00:51
CHORUS
******* 
Jesus              Born          Of        God                     In     the
e|---------|---------|---------|---------|---------|---------|---------|---------|
B|-8-8-8-8-|-8-8-8-8-|-8-8-8-8-|-8-8-8-8-|-7-7-7-7-|-7-7-7-7-|-7-7-7-7-|-7-7-7-7-|
G|---------|---------|---------|---------|---------|---------|---------|---------|
D|---------|---------|---------|---------|---------|---------|---------|---------|
A|---------|---------|---------|---------|---------|---------|---------|---------|
E|---------|---------|---------|---------|---------|---------|---------|---------|

   flesh                 I              will           not             forget                    You
e|-s-----------|------------|------------|------------|------------|------------|-------------|-------------|
B|7\12-12-12-12|-12-12-12-12|-12-12-12-12|-12-12-12-12|-10-10-10-10|-10-10-10-10|-10-10-10-10-|-10-10-10-10-|
G|-------------|------------|------------|------------|------------|------------|-------------|-------------|
D|-------------|------------|------------|------------|------------|------------|-------------|-------------|
A|-------------|------------|------------|------------|------------|------------|-------------|-------------|
E|-------------|------------|------------|------------|------------|------------|-------------|-------------|

   lived           And          You        died                    What     a
e|---------|---------|---------|---------|---------|---------|---------|---------|
B|-8-8-8-8-|-8-8-8-8-|-8-8-8-8-|-8-8-8-8-|-7-7-7-7-|-7-7-7-7-|-7-7-7-7-|-7-7-7-7-|
G|---------|---------|---------|---------|---------|---------|---------|---------|
D|---------|---------|---------|---------|---------|---------|---------|---------|
A|---------|---------|---------|---------|---------|---------|---------|---------|
E|---------|---------|---------|---------|---------|---------|---------|---------|

   love                 What                a                sacrifice
e|--s------------|-------------|-------------|-------------|----------------|
B|-7\12-12-12-12-|-12-12-12-12-|-12-12-12-12-|-12-12-12-12-|-10-10-10-10-10-|
G|---------------|-------------|-------------|-------------|----------------|
D|---------------|-------------|-------------|-------------|----------------|
A|---------------|-------------|-------------|-------------|----------------|
E|---------------|-------------|-------------|-------------|----------------|


---------------------------
01:22
VERSE 2
********

  01:22        01:30        01:38        01:46        01:54        02:02        02:10
e|------------|------------|------------|------------|------------|------------|------------|
B|---7-8------|---7-8------|---7-8------|---7-8------|---7-8------|---7-8------|---7-8------|
G|-7--------7-|-7--------7-|-7--------7-|-7--------7-|-7--------7-|-7--------7-|-7--------7-|
D|-------9----|-------9----|-------9----|-------9----|-------9----|-------9----|-------9----|
A|------------|------------|------------|------------|------------|------------|------------|
E|------------|------------|------------|------------|------------|------------|------------|


---------------------------
02:20
CHORUS
******* 
  Jesus            Born          Of        God                     In     the
e|---------|---------|---------|---------|---------|---------|---------|---------|
B|-8-8-8-8-|-8-8-8-8-|-8-8-8-8-|-8-8-8-8-|-7-7-7-7-|-7-7-7-7-|-7-7-7-7-|-7-7-7-7-|
G|---------|---------|---------|---------|---------|---------|---------|---------|
D|---------|---------|---------|---------|---------|---------|---------|---------|
A|---------|---------|---------|---------|---------|---------|---------|---------|
E|---------|---------|---------|---------|---------|---------|---------|---------|

   flesh                 I              will           not             forget                    You
e|-s-----------|------------|------------|------------|------------|------------|-------------|-------------|
B|7\12-12-12-12|-12-12-12-12|-12-12-12-12|-12-12-12-12|-10-10-10-10|-10-10-10-10|-10-10-10-10-|-10-10-10-10-|
G|-------------|------------|------------|------------|------------|------------|-------------|-------------|
D|-------------|------------|------------|------------|------------|------------|-------------|-------------|
A|-------------|------------|------------|------------|------------|------------|-------------|-------------|
E|-------------|------------|------------|------------|------------|------------|-------------|-------------|

   lived           And          You        died                    What     a
e|---------|---------|---------|---------|---------|---------|---------|---------|
B|-8-8-8-8-|-8-8-8-8-|-8-8-8-8-|-8-8-8-8-|-7-7-7-7-|-7-7-7-7-|-7-7-7-7-|-7-7-7-7-|
G|---------|---------|---------|---------|---------|---------|---------|---------|
D|---------|---------|---------|---------|---------|---------|---------|---------|
A|---------|---------|---------|---------|---------|---------|---------|---------|
E|---------|---------|---------|---------|---------|---------|---------|---------|

   love                 What                a           sacrifice
e|-s-----------|------------|------------|------------|------------|------------|-------------|-------------|
B|7\12-12-12-12|-12-12-12-12|-12-12-12-12|-12-12-12-12|-10-10-10-10|-10-10-10-10|-10-10-10-10-|-10-10-10-10-|
G|-------------|------------|------------|------------|------------|------------|-------------|-------------|
D|-------------|------------|------------|------------|------------|------------|-------------|-------------|
A|-------------|------------|------------|------------|------------|------------|-------------|-------------|
E|-------------|------------|------------|------------|------------|------------|-------------|-------------|


---------------------------
02:51
BREAK
******
e|-10----10----10-12-10--------------|
B|-----------------------------10-12-|
G|----12----12----------12--12-------|
D|-----------------------------------|
A|-----------------------------------|
E|-----------------------------------|X4


---------------------------
03:07
BRIDGE
*******
  Emmanuel 
e|-10----10----10-12-10--------------|
B|-----------------------------10-12-|
G|----12----12----------12--12-------|
D|-----------------------------------|
A|-----------------------------------|
E|-----------------------------------|X16


---------------------------
02:20
CHORUS
*******
  Jesus...........................
e|-10----10----10-12-10--------------|
B|-----------------------------10-12-|
G|----12----12----------12--12-------|
D|-----------------------------------|
A|-----------------------------------|
E|-----------------------------------|X8            
Submit corrections


        Born Of God  lessons Hard to play? Try these video lessons and learn fast Born Of God  lessons
        
↑ Back to top | Tablatures and chords for acoustic guitar and electric guitar, ukulele, drums are parodies/interpretations of the original songs. You may use it for private study, scholarship, research or language learning purposes only