Home » J » Jerrod Niemann »

Jerrod Niemann - One More Drinkin' Song Tabs

Artists:  A B C D E F G H I J K L M N O P Q R S T U V W X Y Z # 

One More Drinkin' Song Tabs

(ver. 2) Click to play this song!
Jerrod Niemann
Hey everyone! Wanted to tab out the intro to this awesome song. 
Might not be perfect but I made it sound as accurate as possible. 
The "X's" placed sequentially on the low E string indicate slapping of the 
thumb which adds a percussive beat that I think sounds good with this intro.
Hope you all like it and rate it 5 stars so others stop by as well! Thanks
and enjoy!

P.S.- For the rest of the song, I recommend Koichi Kondo's chord version- seemed spot
on to me!


*Capo 2*


E------------------------------------------------------------------|
B------------------------1-1-1r0-------------------3-3\1--1/3-1-0--|
G--------0-------------0-0-0-0---------0-------2/4---4\2--2/4-2-0--|
D--0h2-------2---0h2-----0-0-0---0h2-------2---------0-------------|
A----------------------------------------------0-------------------|
E--3---X-3-3---X-3---X-------X---3---X-3-3---X---------------------|

E---------------------------------------------------------------|
B------------------------1-1-1r0---0---1/3-1---0----------------|
G--------0-------------0-0-0-0-----0---2/4-2---0-------------0--|
D--0h2-------2---0h2-----0-0-0---------------------0-0-0-0h2----|
A---------------------------------------------------------------|
E--3---X-3-3---X-3---X-------X---3---X-------X---3-------3------|
            
Submit corrections

↑ Back to top | Tablatures and chords for acoustic guitar and electric guitar, ukulele, drums are parodies/interpretations of the original songs. You may use it for private study, scholarship, research or language learning purposes only