» » »

Jeremy Soule - The Dragonborn Comes Tabs

Artists:  A B C D E F G H I J K L M N O P Q R S T U V W X Y Z # 

The Dragonborn Comes Tabs

(ver. 2) Click to play this song!
Jeremy Soule
 Rating:
4.9/5 (20 votes)

 The Dragonborn Comes lessons Tabs too difficult? Try these video lessons and learn fast
 
                        Our     he-ro    our      he-ro    claims a   wa-rri-or's  heart
e|---------------------------------------------------------------------------|
B|--------------------------------------------h------------------------------|
G|---------------------------------0-0-------0-2-----------------------------|
D|---------------2-2------4----------------------------4--2--0-------2-------|
A|-------2-------------------------------------------------------------------|
E|---------------------------------------------------------------------------|


         I     tell you    I     tell you   the Dra-gon-born comes
e|---------------------------------------------------------------------------|
B|---------------------------------------------------------------------------|
G|---------------------------------0--0------0-------------------------------|
D|---------------2--2------4---------------------4---2---0---2---------------|
A|-------2-------------------------------------------------------------------|
E|---------------------------------------------------------------------------|


        With a voice  wiel-ding   po-wer   of the    an-cient nord art
e|---------------------------------------------------------------------------|
B|---------------------------------------------------------------------------|
G|-------4---4---4-----------------0--2-----2--2-----------------------------|
D|----------------------2---2------------------------4---2---0---2-----------|
A|---------------------------------------------------------------------------|
E|---------------------------------------------------------------------------|


        Be-lieve       be-lieve       the   Dra-gon-born comes
e|---------------------------------------------------------------------------|
B|---------------------------------------------------------------------------|
G|--------------------------0----------0-------------------------------------|
D|------------2--------4----------------------4---2---0---2------------------|
A|-------2-------------------------------------------------------------------|
E|---------------------------------------------------------------------------|


        It's an end     to the   e-vil     of all Sky-rim's foes
e|---------------------------------------------------------------------------|
B|---------------------------------------------------------------------------|
G|-------4---4---4---------------0--2------2---------------------------------|
D|-----------------------2---2-----------------4---5---7---2-----------------|
A|---------------------------------------------------------------------------|
E|---------------------------------------------------------------------------|


        Be-ware        be-ware       the   Dra-gon-born comes
e|---------------------------------------------------------------------------|
B|---------------------------------------------------------------------------|
G|--------------------------0----------0-------------------------------------|
D|------------2--------4----------------------4---2---0---2------------------|
A|-------2-------------------------------------------------------------------|
E|---------------------------------------------------------------------------|


        For the dark-ness has   passed   and the      le-gend yet grows
e|---------------------------------------------------------------------------|
B|---------------------------------------------------------------------------|
G|-------4---4---4-----------------2------0---0------------0---2-------------|
D|---------------------2---2---------------------------4------------2--------|
A|---------------------------------------------------------------------------|
E|---------------------------------------------------------------------------|


      You'll  know       you'll  know      the  Dra-gon-born's come
e|---------------------------------------------------------------------------|
B|---------------------------------------------------------------------------|
G|-------4-----4--------------------2-------2--------------------------------|
D|---------------5----------5-----5--------------4----2----0-----2-----------|
A|---------------------------------------------------------------------------|
E|---------------------------------------------------------------------------|            
Submit corrections


        The Dragonborn Comes lessons Hard to play? Try these video lessons and learn fast The Dragonborn Comes lessons
        
↑ Back to top | Tablatures and chords for acoustic guitar and electric guitar, ukulele, drums are parodies/interpretations of the original songs. You may use it for private study, scholarship, research or language learning purposes only