» » »

Jeremy Soule - Skyrim Theme - Dragonborn Tabs

Artists:  A B C D E F G H I J K L M N O P Q R S T U V W X Y Z # 

Skyrim Theme - Dragonborn Tabs

(ver. 1) Click to play this song!
Jeremy Soule
 Rating:
3.4/5 (25 votes)

 Skyrim Theme - Dragonborn  lessons Tabs too difficult? Try these video lessons and learn fast
 
                (Chanting...)

E|-------------------0----------------------------------|
B|-3-2-3--3-2-3--3-2---3-2-0--------------------2-3-2-0-|
G|----------------------------4-2-4--4-2-4--4-2---------|
D|------------------------------------------------------|
A|------------------------------------------------------|
E|------------------------------------------------------|

E|----------0-2--2-5-0-----------------------------------|
B|-0-2-3--3-------------3-2-0--------------------2-3-----|
G|-----------------------------4-2-4--4-2-4--4-2-----2-4-|
D|-------------------------------------------------------|
A|-------------------------------------------------------|
E|-------------------------------------------------------|

E|-----------0-2---2-5-0---------------------0-2---2-5-7-|
B|-0-2-3---3---------------3-2-0---0-2-3---3-------------|
G|-------------------------------------------------------|
D|-------------------------------------------------------|
A|-------------------------------------------------------|
E|-------------------------------------------------------|

(Intermission...)

E|-----------0-2---2-5-0---------------------0-2---2-5-7---5-9-7---7-9-10-9-7--------0-----2-0-|
B|-0-2-3---3---------------3-2-0---0-2-3---3----------------------------------10-8-7-----3-----|
G|---------------------------------------------------------------------------------------------|
D|---------------------------------------------------------------------------------------------|
A|---------------------------------------------------------------------------------------------|
E|---------------------------------------------------------------------------------------------|

E|-------------------0----------------------------------|
B|-3-2-3--3-2-3--3-2---3-2-0--------------------2-3-2-0-|
G|----------------------------4-2-4--4-2-4--4-2---------|
D|------------------------------------------------------|
A|------------------------------------------------------|
E|------------------------------------------------------|

E|----------0-2--2-5-0-----------------------------------|
B|-0-2-3--3-------------3-2-0--------------------2-3-----|
G|-----------------------------4-2-4--4-2-4--4-2-----2-4-|
D|-------------------------------------------------------|
A|-------------------------------------------------------|
E|-------------------------------------------------------|

(Chanting...)            
Submit corrections


        Skyrim Theme - Dragonborn  lessons Hard to play? Try these video lessons and learn fast Skyrim Theme - Dragonborn  lessons
        
↑ Back to top | Tablatures and chords for acoustic guitar and electric guitar, ukulele, drums are parodies/interpretations of the original songs. You may use it for private study, scholarship, research or language learning purposes only