» » »

Jeremy Soule - Reign Of The Septims Tabs

Artists:  A B C D E F G H I J K L M N O P Q R S T U V W X Y Z # 

Reign Of The Septims Tabs

(ver. 1) Click to play this song!
Jeremy Soule
 Rating:
4/5 (4 votes)

 Reign Of The Septims lessons Tabs too difficult? Try these video lessons and learn fast
 
                Main riff 1st guitar
e|-------------------------------|
B|-------------------------------|
G|-------------2--2-5------------|
D|----2-3--3-5--------5--3-2-----|
A|--5------------------------5---|
D|-------------------------------|

Main riff 2nd Guitar
e|-----------------------------------------|
B|-----------------10--10-13---------------|
G|-----9-10--10-12-----------12--10-9------|
D|--12--------------------------------12---|
A|-----------------------------------------|
D|-----------------------------------------|
PALM MUTE
e|-------------------------------|
B|-------------------------------|
G|-------------2--2-5------------|
D|----2-3--3-5--------5--3-2-----|
A|--5------------------------5---|
D|-------------------------------|


e|----------------------------------------------------|
B|----------------------------------------------------|
G|----------------------------------------------------|
D|----------------------------------------------------|
A|----------------------------------------------------|
D|-0-2-3---3-5-7--7-10-5--3-2-0--0-2-3---3-5-7--7-12--|

e|----------------------------------|
B|----------------------------------|
G|------------------3(ph)-----------|
D|--0-2-3--5-3-x-0------------------|
A|--0-2-3--5-3-x-0------------------|
D|--0-2-3--5-3-x-0------------------|


Last part before quietness

e|--------------------------------|
B|------------------15------------|
G|---------------14---------------|
D|---10s12-14-15------------------|
A|--------------------------------|
D|--------------------------------|

e|----------------------22--------|
B|------15--17--18--22------------|
G|---14---------------------------|
D|--------------------------------|
A|--------------------------------|
D|--------------------------------|

e|--22--20--18--17-----17p15------|
B|--------------------------------|
G|--------------------------------|
D|--------------------------------|
A|--------------------------------|
D|--------------------------------|
            
Submit corrections


        Reign Of The Septims lessons Hard to play? Try these video lessons and learn fast Reign Of The Septims lessons
        
↑ Back to top | Tablatures and chords for acoustic guitar and electric guitar, ukulele, drums are parodies/interpretations of the original songs. You may use it for private study, scholarship, research or language learning purposes only