Home » J » Jennifer Rostock »

Jennifer Rostock - Jung Und Schn Tabs

Artists:  A B C D E F G H I J K L M N O P Q R S T U V W X Y Z # 

Jung Und Schn Tabs

(Version #1)
Jennifer Rostock
[Intro]

e|------------------------------|
B|------------------------------|
G|------------------------------|
D|------------------------------|
A|-3-3-5-3-6-5-3-3-3-5-3-6-5-3--|
E|------------------------------|

[Verse]

e|-------------------------------------------------------|
B|-------------------------------------------------------|
G|-------------------------------------------------------|
D|---3----3----3----3------------------------------------|
A|----------------------3-3-5-3-6-5-3-3-3-5-3-6-5-3------|
E|-1----1----1----1--------------------------------------|

[Pre-Chorus]

e|--------------------------------------|
B|--------------------------------------|
G|-3---5---3-----3---5---3--------------|
D|-3-3-5---3-5---3-3-5---3-5-3-3-3-3-3--|
A|-1-3-3---1-5---1-3-3---1-5-3-3-3-3-3--|
E|---1-------3-----1-------3-1-1-1-1-1--|

[Chorus]

e|--------------------------------|
B|--------------------------------|
G|-10-8-----10-8---5--------------|
D|-10-8-8---10-8-8-5---3-3-3-3-3--|
A|--8-6-8----8-6-8-3---3-3-3-3-3--|
E|------6--------6-----1-1-1-1-1--|

e|------------------------------------------------------------------------|
B|------------------------------------------------------------------------|
G|-10-8-----10-8---5---10---8-----10-8---5-5-5---10-8-----10-8---5-----10-|
D|-10-8-8---10-8-8-5---10---8-8---10-8-8-5-5-5---10-8-8---10-8-8-5---3-10-|
A|--8-6-8----8-6-8-3----8---6-8----8-6-8-3-3-3----8-6-8----8-6-8-3---3--8-|
E|------6--------6------------6--------6--------------6--------6-----1----|            
Submit corrections

↑ Back to top | Tablatures and chords for acoustic guitar and electric guitar, ukulele, drums are parodies/interpretations of the original songs. You may use it for private study, scholarship, research or language learning purposes only