Home » J » Jeff Lynne »

Jeff Lynne - Stormy Weather Tabs

Artists:  A B C D E F G H I J K L M N O P Q R S T U V W X Y Z # 

Stormy Weather Tabs

(ver. 1) Click to play this song!
Jeff Lynne
[Intro]

          G    E7        Am            D7               G       E7
e|---------------------------------------------------------------------------|
B|-11/12--15-------11/12/15\12--/15\14-13---------11/12/15-\3----------------|
G|---------------------------------------------------------------------------|
D|---------------------------------------------------------------------------|
A|---------------------------------------------------------------------------|
E|---------------------------------------------------------------------------|
  Am         D7
e|---------------------------------------------------------------------------|
B|-----5-8-/11--11-----------------------------------------------------------|
G|--/5-----------------------------------------------------------------------|
D|---------------------------------------------------------------------------|
A|---------------------------------------------------------------------------|
E|---------------------------------------------------------------------------|


[Verse]

           G  E7          Am            D7   
Don't know why  There's no sun up in the sky
       G      E7   Am                D7  G             E7
Stormy weather     since my girl and I ended it together
Am            D7           G   E7   Am  D7
Keeps raining all the time
        G  E7             Am           D7
Life is bad     gloom and misery everywhere
       G      E7  Am                  D7            G      E7
Stormy weather     just can't seem to get my self together
Am        D7      G     G7
I'm weary all the time


[Chorus]

         C                       G
Oh yeah, since she went away the blues walked in and met me
C                   G
If she stays away a rocking chair will get me
C           C#dim7   G             G G/F#  E7                   Am    D7      
All I do is pray the lord will let me      walk in the sun once more


[Solo]


          G  E7            Am                  D7                   G      E7
e|------------15-------------------------------------------------------------|
B|--11/12-15--------------/15/12--/15\12/15\14\13-------------11/12/15-\3----|
G|---------------------------------------------------------------------------|
D|---------------------------------------------------------------------------|
A|---------------------------------------------------------------------------|
E|---------------------------------------------------------------------------|
  Am       D7           G   E7  Am          D7         G                 G7
e|---------------------------------------------------------------------------|
B|---/10\8/11----10\8\5/8--3-----------5--8/11------11/12\8---------/8\7\6---|
G|--------------------------------/5-----------------------------------------|
D|---------------------------------------------------------------------------|
A|---------------------------------------------------------------------------|
E|---------------------------------------------------------------------------|


[Chorus]

C                       G
Since she went away the blues walked in and met me
C                   G
If she stays away a rocking chair will get me
C           C#dim7   G             G G/F#  E7                   Am    D7      
All I do is pray the lord will let me      walk in the sun once more


[Verse]

G        E7      Am             D7
Can't go on everything I had is gone
       G       E7  Am                  D7           G       E7
Stormy weather,       since my gal and I ended it together
Am            D7           G   E7
Keeps raining all the time
Am            D7           G   E7   Am  D7
Keeps raining all the time
       G      E7  Am  D7
Stormy weather,         
       G      E7  Am  Am/B  D7
stormy weather, 
       G      E7
stormy weather
Am Am/B          D7      G    E7  Am Am/B D7  G
   Keeps raining all the time


[Little Subtle Outro]

e|---------------------------------------------------------------------------|
B|----------------------3----------------------------------------------------|
G|--/7-6-5-3------------4----------------------------------------------------|
D|---------------5------5----------------------------------------------------|
A|------------------5---5----------------------------------------------------|
E|----------------------3----------------------------------------------------|




You can play the chords open or barre. 

[Chord Diagram] (In order of appearance)

   G   E7  Am  D7  G7  C   C#dim7  G/F#  Am/B
E|-3---0---0---2---1---0---3-------3-----0----|
B|-0---3---1---1---0---1---5-------0-----1----|
G|-0---1---2---2---0---0---3-------0-----2----|
D|-0---0---2---0---0---2---5-------0-----x----|
A|-2---2---0-------2---3---4-------x-----2----|
E|-3---0-----------3---------------2----------|
            
Submit corrections

↑ Back to top | Tablatures and chords for acoustic guitar and electric guitar, ukulele, drums are parodies/interpretations of the original songs. You may use it for private study, scholarship, research or language learning purposes only