» » »

Jeff Buckley - Last Goodbye Bass

Artists:  A B C D E F G H I J K L M N O P Q R S T U V W X Y Z # 

Last Goodbye Bass

(ver. 5) Click to play this song!
Jeff Buckley
 Rating:
4.3/5 (27 votes)

 Last Goodbye lessons Tabs too difficult? Try these video lessons and learn fast
 
                [INTRO]
G|---------------------------------------------------|
D|---------------------------------------------------|
A|----0---0---0---0--3-3-3--------------------5-5-5--|
D|--4---4---4---4---------0--5-0--5-0--5-0--5--------|

G|-------------------------7---------------------------|
D|-----------------------------------------------------|
A|-------5--------------------------5------------------|
D|--0-0-----0-3--5--3--0------0-0------0---------------|

G|-----------------------------------------------------------------|
D|-----------------------------------------------------------------|
A|--5-------------------5-----2---------------0-----0--------------|
D|--------0--------0---0---------------------------------------2---|
This is our last goodbye I hate to feel the love between us die

G|----------------------------------------------------|
D|----------------------------------------------------|
A|------------------------5-----------5---------------|
D|-------5-----------0---------0----------------------|
But it's over Just hear this and then I'll go

G|---------2--------------------------------------7---|
D|--------------------------------------5-------------|
A|-----0-------0--------------------------------------|
D|-----------------------------------5----5----5------|
 you gave me more to live for,more than you'll ever know.

G|----------7--7-------------------------------------------------|
D|---------------------------------------------------------------|
A|------5--------5-------------2-------------0---------------5---|
D|--0--------------------0---------------------------------------|
This is our last embrace,must I dream and always see your face

G|-----------------------------------------------------|
D|-----------------------------------------------------|
A|--------------------------5--------------------------|
D|-2---3---5------7------------------------------------|
Why can't we overcome this wall

G|--------------------------------------------------------------|
D|--------------------------------------------------------------|
A|---0---0---0---0--3-0-3-3---------------------5-2-5-0-5-------|
D|-4---4---4---4------------0--5-0--5-0--5-0--5-----------------|
Baby, maybe it is just because I didn't know you at all.

G|-------------------------------------------------|
D|-------------------------------------------------|
A|--3-3-3-2-3--1--1-0---3-3-3-2-3--1-0-1-1---------|
D|-------------------------------------------------|

G|-----------------------------------------------------|
D|-----------------------------------------------------|
A|---0---0---0---0-3-0-3--------------------5-2-5-0-5--|
D|-4---4---4---4---------0--5-0--5-0--5-0--5-----------|
Kiss me,     please,       kiss me

G|--------------------------------------------------------------|
D|--------------------------------------------------------------|
A|---0---0---0---0-3-0-3---------------------5-0-5-2-5----------|
D|-4---4---4---4---------0--5-0--5-0---5-0--5-------------------|
But kiss me out of desire, babe, and not consolation

G|-------------------------------------------------------------|
D|-------------------------------------------------------------|
A|---0---0---0---0-3-0-3---------------------------5-0-5-2-5---|
D|-4---4---4---4---------0--5-0--5-0--5-0--5-------------------|
You know, it makes me so angry        'cause I know that in time

G|----------------------------------------------------|
D|----------------------------------------------------|
A|--0----0-------0------------------------------------|
D|-------------------------5------5--------5----------|
I'll only make you cry, this is our last goodbye.

G|-------7------------------7-------------7-------------------|
D|------------------------------------------------------------|
A|---5----0-5-----5----0--5----------5---0-5----5-------------|
D|-0-----0-0--3-5---3--0-----3-5----0------------0------------|

G|------------------------------------------------------|
D|------------------------------------------------------|
A|-5------2----0---0----0-------------------------------|
D|-------------------------------5--5-------------------|
Did you say "no, this can't happen to me,"

G|------------------------------------------------------|
D|------------------------------------------------------|
A|-5------2----0---0----0-------------------------------|
D|-------------------------------5--5-------------------|
did you rush to the fone..

G|------------------------------------------------------|
D|------------------------------------------------------|
A|-5------2----0---0----0-------------------------------|
D|-------------------------------5---5------------------|
Was there a voice unkind in the back of your mind saying,

G|-----------------------------------------------------|
D|--2------------------------------------5-------------|
A|------0-----------2--3-------3-----------------------|
D|-2----------------------------------5----------------|
"maybe... you didn't know him at all."

G|--------7-----------------7----------------------------|
D|----------7--------------7-----------------------------|
A|--5-5--------5--5----5------5--------------------------|
D|------0--------0---------------------------------------|
Well, the bells out in the church tower chime

G|----------------7-0-7------------7-------------------|
D|--------------7--------------------------------------|
A|--------3--5----------5------5-----------------------|
D|-0---0--------------------0-----0--------------------|
Burning clues into this heart of mine

G|-7---------7--------7---------7-------7----------------|
D|----7--------------------------------------------------|
A|-------5--3---0------5---5-------5---------------------|
D|-----------------0-0----------0------------------------|
Thinking so hard on her soft eyes and the memory

G|---------7-----------------7---------------7--------------|
D|----------------------------------------7--7--------------|
A|------5---------5-----------------5-0-5------7-5----------|
D|---0-----0--3-5----5----0-0-----------0----------0--------|
Of her sighs that, "it's over... it's over..."            
Submit corrections


        Last Goodbye lessons Hard to play? Try these video lessons and learn fast Last Goodbye lessons
        
↑ Back to top | Tablatures and chords for acoustic guitar and electric guitar, ukulele, drums are parodies/interpretations of the original songs. You may use it for private study, scholarship, research or language learning purposes only