» » »

Jeff Buckley - Calling You Tabs

Artists:  A B C D E F G H I J K L M N O P Q R S T U V W X Y Z # 

Calling You Tabs

(ver. 3) Click to play this song!
Jeff Buckley
 Rating:
4/5 (4 votes)

 Calling You lessons Tabs too difficult? Try these video lessons and learn fast
 
                GUITAR INTERLUDE
 The strumming here is a bit unarticulated, but notice the chord
 voicings and the Hendrix-esque fills.

 Db              Gbm/Db Db                        Gbm6/Db Db
|----0---------0-|1---1-0---------|----------0---0-|1---1-0------0--|
|----1---1-----1-|1---1-1--1----1-|----------1---1-|3---3-1------1--|
|----0h2-0--0--2-|1---1-0--0----0-|0---0-----0---0-|1---1-0------0h2|
|----x-----------|x---x-x--2----2-|0h2-0h2---2---2-|x---x-2------x--|
|3----------3--3-|3---3-3--3----3-|3---3-----3---3-|3---3-3------3--|
|----------------|----------------|----------------|----------------|

 Db             Gbm6/Db Db         Db               C7      F7(#9,b9)
|0---------------|1---1-0---------|0-----0---------|--------3---1---|
|1---1-1----1----|3---3-1---1--1--|1-----1---1--1--|--------3---3---|
|0h2-0-0----0----|1---1-0---0--0--|0-----0---0--0--|2---2---1-1-1---|
|x---x-2----2----|x---x-x---2--0h2|0h2---2---2--2--|1-1-1---2-2-2-2-|
|3---3-3----3----|3---3-3---3--3--|3-----3---3--3--|2-2-2-----------|
|----------------|----------------|----------------|----------------|



CHORUS
 These are the brilliant chord voicings. Buckley strums the notes again
 here and there, but these notes are the essential ones.
 The notes in parentheses ( ) are cool extra notes.

 Ebm6/Gb           F7/Eb             Dm7(b5)           G7
|------5----------|------4----------|------3----------|------2----------|
|----3------------|----5------------|----5------------|----5------------|
|--4--------------|--4--------------|--4--------------|--3--------------|
|3----------------|-----------------|-----------------|-----------------|
|-----------------|5----------------|4----------------|--------------4-5|
|-----------------|-----------------|------------(3)--|2----------------|
"I am calling you (Can't you hear me-)


 Em7(b5)           A7(b13)           Dm7(b5)           G7
|------5----------|------4----------|------3----------|------2----------|
|----7------------|----5------------|----5------------|----5------------|
|--6--------------|--5--------------|--4--------------|--3--------------|
|-----------------|-----------------|-----------------|-----------------|
|6----------------|-----------------|4----------------|-----------------|
|--------------(5)|4----------------|------------(3)--|2----------------|
 I am calling you ...




1.VERSE
 This part is a bit of a stretch, but you can hear Buckley struggling too.

 Amaj7/C#          Dsus2(#11)        F#m9              B7sus4
|------0----------|------0----------|------0----------|-----(0)---------|
|-----------------|-----------------|-----------------|------5----------|
|----2------------|----2------------|----2------------|----2------------|  2x
|--6--------------|--6--------------|--6--------------|--4--------------|
|4----------------|5----------------|-----------------|2----------------|
|-----------------|-----------------|2----------------|-----------------|


    "
 1.   A desert to road from Vegas to nowhere
      Some place better than where you've been
      A coffee machine that needs some fixing
      In a little café just around the bend

 2.   A hot dry wind blows right through me
      A baby is crying and I can't sleep
      We all know a change is coming
      Coming closer, sweet release
                                   "



CHORUS


2.VERSE


CHORUS, then add the two bars of Cm7(b5) and F7. (See the final chorus-part.)


GUITAR INTERLUDE


CHORUS


1.VERSE


2.VERSE



FINAL CHORUS
 Ebm6/Gb           F7/Eb             Dm7(b5)           G7
|------5----------|------4----------|------3----------|------2----------|
|----3------------|----5------------|----5------------|----5------------|
|--4--------------|--4--------------|--4--------------|--3--------------|
|3----------------|-----------------|-----------------|-----------------|
|-----------------|5----------------|4----------------|-----------------|
|-----------------|-----------------|-----------------|2----------------|

 Em7(b5)           A7                Dm7(b5)           G7
|------5----------|------4----------|------3----------|------2----------|
|----7------------|----7------------|----5------------|----5------------|
|--6--------------|--5--------------|--4--------------|--3--------------|
|-----------------|-----------------|-----------------|-----------------|
|6----------------|-----------------|4----------------|-----------------|
|-----------------|4----------------|-----------------|2----------------|

 Cm7(b5)           F7                 Bbmaj7
|------1----------|------0----------:-0^-----:
|----3------------|----3------------:-2^-----:
|--2--------------|--1--------------:-1^-----:
|-----------------|2----------------:-2^-----:
|2----------------|-----------------:-0^-----:
|-----------------|-----------------:--------:
            
Submit corrections


        Calling You lessons Hard to play? Try these video lessons and learn fast Calling You lessons
        
↑ Back to top | Tablatures and chords for acoustic guitar and electric guitar, ukulele, drums are parodies/interpretations of the original songs. You may use it for private study, scholarship, research or language learning purposes only