Home » J » Jean-Jacques Goldman »

Jean-Jacques Goldman - Bonne Idee Tabs

Artists:  A B C D E F G H I J K L M N O P Q R S T U V W X Y Z # 

Bonne Idee Tabs

(ver. 1) Click to play this song!
Jean-Jacques Goldman
Capo I


Intro = Riff #1

[Verse]
Riff #1
[Verse]
Riff #1
[Bridge]
Riff #2
[Verse]
Riff #3


[Intro]

e|--------8---7----7--7----5-5-5-5---3----------3-------| 
B|--------8---8----8--8----7-7-8-8---5------2-5---5-2---| 
G|--4/9--(9)--7----7--7----7-7-7-7---4----3-----------3-|
D|------------------------------------------------------|
A|------------------------------------------------------|
E|------------------------------------------------------|

e|--------8---7----7--7-----5-5---3--3-3-3-3--3-3-3-3---| 
B|--------8---8----8--8-----7-7---5--5-5-5-5--5-5-5-5---| 
G|--4/9--(9)--7----7--7-----7-7---4--4-4-4-4--4-4-4-4---|
D|------------------------------------------------------|
A|------------------------------------------------------|
E|------------------------------------------------------|

e|--------8---7----7--7----5-5-5-5---3----------3-------| 
B|--------8---8----8--8----7-7-8-8---5------2-5---5-2---| 
G|--4/9--(9)--7----7--7----7-7-7-7---4----3-----------3-|
D|------------------------------------------------------|
A|------------------------------------------------------|
E|------------------------------------------------------|

e|--------8---7--7-7---5---3--3-3-3-3--3-3-3-3---3--3-3-3-3--3-3-3-3--|
B|--------8---8--8-8---7---3--3-3-3-3--3-3-3-3---3--3-3-3-3--3-3-3-3--|
G|--4/9--(9)--7--7-7---7---5--5-5-5-5--5-5-5-5---5--5-5-5-5--5-5-5-5--|
D|--------------------------------------------------------------------|
A|--------------------------------------------------------------------|
E|--------------------------------------------------------------------|


[Verse]

Cadd9        G           D  Dsus4   Em7 
Un debut de Janvier, si j'ai bien su compter 
Cadd9        G         D  Dsus4        Em7 
Restes de fete ou bien voeux tres appuyes 
Cadd9             G       D Dsus4       Em7 
De Ruth ou de Moishe, lequel a eu l'idee ? 
Cadd9         G                     D Dsus4         Em7 
Qu'importe j'ai gagne la course, et parmi des milliers 
Cadd9                    G              D Dsus4           Em7 
Nous avons tous ete vainqueurs, meme le dernier des derniers 
Cadd9                       G      D Dsus          Em7 
Une fois au moins les meilleurs, nous qui sommes nes 
Cadd9              G    D Dsus4        Em7 
Au creux de nos meres, qu'il fait bon murir 
Cadd9                    G      D Dsus4        Em7 
Et puis j'ai vu de la lumiere alors je suis sorti 
                 
Et j'ai dit.....

e|--------8---7----7--7----5-5-5-5---3----------3-------| 
B|--------8---8----8--8----7-7-8-8---5------2-5---5-2---| 
G|--4/9--(9)--7----7--7----7-7-7-7---4----3-----------3-|
D|------------------------------------------------------|
A|------------------------------------------------------|
E|------------------------------------------------------|

                                      ..Bonne idee

e|--------8---7----7--7-----5-5---3--3-3-3-3--3-3-3-3---| 
B|--------8---8----8--8-----7-7---5--5-5-5-5--5-5-5-5---| 
G|--4/9--(9)--7----7--7-----7-7---4--4-4-4-4--4-4-4-4---|
D|------------------------------------------------------|
A|------------------------------------------------------|
E|------------------------------------------------------|

e|--------8---7----7--7----5-5-5-5---3----------3-------| 
B|--------8---8----8--8----7-7-8-8---5------2-5---5-2---| 
G|--4/9--(9)--7----7--7----7-7-7-7---4----3-----------3-|
D|------------------------------------------------------|
A|------------------------------------------------------|
E|------------------------------------------------------|

e|--------8---7--7-7---5---3--3-3-3-3--3-3-3-3---3--3-3-3-3--3-3-3-3--|
B|--------8---8--8-8---7---3--3-3-3-3--3-3-3-3---3--3-3-3-3--3-3-3-3--|
G|--4/9--(9)--7--7-7---7---5--5-5-5-5--5-5-5-5---5--5-5-5-5--5-5-5-5--|
D|--------------------------------------------------------------------|
A|--------------------------------------------------------------------|
E|--------------------------------------------------------------------|


[Verse]

Cadd9      G        D Dsus4                Em7 
Y'avait du soleil, des parfums, de la pluie 
Cadd9                   G       D Dsus4                    Em7 
Chaque jours un nouveau reveil, chaque jour une autre nuit 
Cadd9                G          D Dsus4        Em7 
Des routes et des motards et des matches de rugby 
Cadd9                    G       D Dsus4            Em7 
Des spaghettis, Frederic Dard et Johnny Winter aussi 
Cadd9                   G        D Dsus4         Em7 
On m'a dit c'est qu'une etincelle avant l'obscurite 
Cadd9                       G     D Dsus4            Em7  
Juste un passage, un arc en ciel, une etrange absurdite
Cadd9                G     D Dsus4          Em7 
Des freres, des tendres, des tresors a chercher 
Cadd9              G            D Dsus4                    Em7 
Des vertiges a prendre, a comprendre et des filles a caresser 
               
J'me suis dit .....  

e|--------8---7----7--7----5-5-5-5---3----------3-------| 
B|--------8---8----8--8----7-7-8-8---5------2-5---5-2---| 
G|--4/9--(9)--7----7--7----7-7-7-7---4----3-----------3-|
D|------------------------------------------------------|
A|------------------------------------------------------|
E|------------------------------------------------------|

                                    ..mmmh bonne idee

e|--------8---7----7--7-----5-5---3--3-3-3-3--3-3-3-3---| 
B|--------8---8----8--8-----7-7---5--5-5-5-5--5-5-5-5---| 
G|--4/9--(9)--7----7--7-----7-7---4--4-4-4-4--4-4-4-4---|
D|------------------------------------------------------|
A|------------------------------------------------------|
E|------------------------------------------------------|

e|--------8---7----7--7----5-5-5-5---3----------3-------| 
B|--------8---8----8--8----7-7-8-8---5------2-5---5-2---| 
G|--4/9--(9)--7----7--7----7-7-7-7---4----3-----------3-|
D|------------------------------------------------------|
A|------------------------------------------------------|
E|------------------------------------------------------|

e|--------8---7--7-7---5---3--3-3-3-3--3-3-3-3---3--3-3-3-3--3-3-3-3--|
B|--------8---8--8-8---7---3--3-3-3-3--3-3-3-3---3--3-3-3-3--3-3-3-3--|
G|--4/9--(9)--7--7-7---7---5--5-5-5-5--5-5-5-5---5--5-5-5-5--5-5-5-5--|
D|--------------------------------------------------------------------|
A|--------------------------------------------------------------------|
E|--------------------------------------------------------------------|


[Bridge]

A                     D              E                A 
Il puis y'a toi qui debarque en ouvrant grand mes rideaux 
D                          A            D                     E
Et des flots de couleurs eclatent et le beau semble bien plus beau 
A                    D        E                 F#m
Et rien vraiment ne change mais tout est different 
D                       A             E             F#m
Comme ces festins qu'on mange seul ou en les partageant 


[Riff #2]

e|--------8---7----7--7----5-5-5-5---3----------3-------| 
B|--------8---8----8--8----7-7-8-8---5------2-5---5-2---| 
G|--4/9--(9)--7----7--7----7-7-7-7---4----3-----------3-|
D|------------------------------------------------------|
A|------------------------------------------------------|
E|------------------------------------------------------|

e|--------8---7----7--7-----5--------6---5--5-5---3-----| 
B|--------8---8----8--8-----7--------6---7--7-7---5-----| 
G|--4/9--(9)--7----7--7-----7---2/7—(7)--5--5-5---5-----|
D|------------------------------------------------------|
A|------------------------------------------------------|
E|------------------------------------------------------|


[Verse]

Cadd9          G          D Dsus4          Em7 
Je marchais au hasard, le soir etait tombe 
Cadd9                 G             D Dsus4     Em7 
Avec mon sac et ma guitare j'etais un peu fatigue 
Cadd9           G    D Dsus4        Em7 
Tout etait si desert, ou me desalterer ? 
Cadd9                    G      D Dsus4            Em7 
Et puis j'ai vu de la lumiere et je vous ai trouves 


[Riff #3]

e|--------8---7----7--7----5-5-5-5---3----------3-------| 
B|--------8---8----8--8----7-7-8-8---5------2-5---5-2---| 
G|--4/9--(9)--7----7--7----7-7-7-7---4----3-----------3-|
D|------------------------------------------------------|
A|------------------------------------------------------|
E|------------------------------------------------------|

e|--------8---7----7--7-----5-5---3--3-3-3-3--3-3-3-3---| 
B|--------8---8----8--8-----7-7---5--5-5-5-5--5-5-5-5---| 
G|--4/9--(9)--7----7--7-----7-7---4--4-4-4-4--4-4-4-4---|
D|------------------------------------------------------|
A|------------------------------------------------------|
E|------------------------------------------------------|

e|--------8---7----7--7-----5-----3-------3------------3-------| 
B|--------8---8----8--8-----7-----5------3--------------3------| 
G|--4/9--(9)--7----7--7-----7-----5-----5----------------5-----|
D|-------------------------------------5------------------5----|
A|---------------------------------------------------------3---|
E|----------------------------------------------------------3--|
                                      ....Bonne idee             
Submit corrections

↑ Back to top | Tablatures and chords for acoustic guitar and electric guitar, ukulele, drums are parodies/interpretations of the original songs. You may use it for private study, scholarship, research or language learning purposes only