Home » J » J Cole »

J Cole - In The Morning Tabs

Artists:  A B C D E F G H I J K L M N O P Q R S T U V W X Y Z # 

In The Morning Tabs

(ver. 2) Click to play this song!
J Cole
 Rating:
2/5 (25 votes)
                e|6-7-6-----------------------|
B|------9-7-----7------7------|
G|----------------8------8----|
D|-----------9------9------9--|
A|----------------------------|
E|----------------------------|

e|6-7-6-----------------------|
B|------9-7-----7-------------|
G|----------------8----8---8--|
D|-----------9------9----9----|
A|----------------------------|
E|----------------------------|
 

e|6--------------9\11-9----6--|
B|7---------------------------|
G|----------------------------|
D|----------------------------|
A|----------------------------|
E|----------------------------|


e|6--6h7-6--9\11-9----6--6----|
B|--------------------------9-|
G|----------------------------|
D|----------------------------|
A|----------------------------|
E|----------------------------|


Repeats these four piano fills through the whole song with the the chords(for
another time) but yeah that's that

If the above is too hard then this is an easier way that is not exact but it is 
a little easier 

e|6-7-6------------------------|
B|------9-7------7------7------|
G|----------8------8------8----|x2
D|------------9------9------9--|
A|-----------------------------|
E|-----------------------------|

e|9\11-9-----------------------|
B|--------11-11-11h12-11-------|
G|-----------------------------|x2
D|-----------------------------|
A|-----------------------------|
E|-----------------------------|
            
Submit corrections

↑ Back to top | Tablatures and chords for acoustic guitar and electric guitar, ukulele, drums are parodies/interpretations of the original songs. You may use it for private study, scholarship, research or language learning purposes only