» » »

J Cole - Losing My Balance Tabs

Artists:  A B C D E F G H I J K L M N O P Q R S T U V W X Y Z # 

Losing My Balance Tabs

(ver. 1) Click to play this song!
J Cole
 Rating:
4.2/5 (20 votes)

 Losing My Balance  lessons Tabs too difficult? Try these video lessons and learn fast
 
                Em/B  D  C/G

Em/B
e|------7--------------------------------------------------------------------|
B|------8--------------------------------------------------------------------|
G|------9--------------------------------------------------------------------|
D|------9--------------------------------------------------------------------|
A|------7--------------------------------------------------------------------|
E|------7--------------------------------------------------------------------|


D
e|------10--------------------------------------------------------------------|
B|------10--------------------------------------------------------------------|
G|------11--------------------------------------------------------------------|
D|------12--------------------------------------------------------------------|
A|------12--------------------------------------------------------------------|
E|------10--------------------------------------------------------------------|


C/G
e|-------3-------------------------------------------------------------------|
B|-------5-------------------------------------------------------------------|
G|-------5-------------------------------------------------------------------|
D|-------5-------------------------------------------------------------------|
A|-------3-------------------------------------------------------------------|
E|-------3-------------------------------------------------------------------|


The melody in the song is as follows.

e|---------------------------------------------------------------------------|
B|-----------8--8-8----------------10--10-10--------5--5-5--------5--5-5-----|
G|--------9-----9-9------------11------11-11-----5-----5-5-----5-----5-5-----|
D|-----9--------9-9--------12----------12-12--5--------5-5--5--------5-5-----|
A|--7-----------7-7---12---------------12-12---------------------------------|
E|---------------------------------------------------------------------------|            
Submit corrections


        Losing My Balance  lessons Hard to play? Try these video lessons and learn fast Losing My Balance  lessons
        
↑ Back to top | Tablatures and chords for acoustic guitar and electric guitar, ukulele, drums are parodies/interpretations of the original songs. You may use it for private study, scholarship, research or language learning purposes only