Home » J » Jay Chou »

Jay Chou - Bu Neng Shuo De Mi Mi Tabs

Artists:  A B C D E F G H I J K L M N O P Q R S T U V W X Y Z # 

Bu Neng Shuo De Mi Mi Tabs

(ver. 2) Click to play this song!
Jay Chou
Bu Neng Shuo De Mi Mi - Secret

I think this is a better version of Jay Chou's song Secret

e-----------------------------------------------------------------------------|
 B----------------------------------------------------------------------------|
 G------0-0-0-------------0-0-0----2-2-2----0-0-0-------------0-0-0----2-2-2--|
 D----0--------0-4-4-4--0--------0--------0--------0-4-4-4--0--------0--------|
 A----------------------------------------------------------------------------|
 E----------------------------------------------------------------------------|

     G                                   EM
 e-----------------------------------------------------------------------------------------|
 B-----------------------------------------------------------------------------------------|
 G------0-0-0-------------0-0-0----2-2-2----0-0-0-------------0-0-0----2-2-2---------------|
 D----0--------0-4-4-4--0--------0--------0--------0-4-4-4--0--------0---------------------|
 A-----------------------------------------------------------------------------------------|
 E-----------------------------------------------------------------------------------------|

      C                                   D
 e-----------------------------------------------------------------------------------------|
 B-----------------------------------------------------------------------------------------|
 G------0-0-0-------------0-0-0----2-2-2----0-0-0-------------0-0-0----2-2-2---------------|
 D----0--------0-4-4-4--0--------0--------0--------0-4-4-4--0--------0---------------------|
 A-----------------------------------------------------------------------------------------|
 E-----------------------------------------------------------------------------------------|

      G                                   EM
 e-----------------------------------------------------------------------------------------|
 B-----------------------------------------------------------------------------------------|
 G------0-0-0-------------0-0-0----2-2-2----0-0-0-------------0-0-0----2-2-2---------------|
 D----0--------0-4-4-4--0--------0--------0--------0-4-4-4--0--------0---------------------|
 A-----------------------------------------------------------------------------------------|
 E-----------------------------------------------------------------------------------------|

      C                                   D
 e-----------------------------------------------------------------------------------------|
 B-----------------------------------------------------------------------------------------|
 G------0-0-0-------------0-0-0----2-2-2----0-0-0-------------0-0-0----2-2-2---------------|
 D----0--------0-4-4-4--0--------0--------0--------0-4-4-4--0--------0---------------------|
 A-----------------------------------------------------------------------------------------|
 E-----------------------------------------------------------------------------------------|

(1)
 e-----------------------------------------------------------------------------------------|
 B-----------------------------------------------------------------------------------------|
 G------0-0-0-------------0-0-0----2-2-2----0-0-0-------------0-0-0----2-2-2---------------|
 D----0--------0-4-4-4--0--------0--------0--------0-4-4-4--0--------0---------------------|
 A-----------------------------------------------------------------------------------------|
 E-----------------------------------------------------------------------------------------|

(2)
 e---11---9-8---11---9-8---11---9-8---11---9-8---11---9-8---11---9-8---11---8-6---11-------|
 B-9----9-----9----9-----9----9-----9----9-----9----9-----9----9-----9----9-----9----9-9-8-|
 G-----------------------------------------------------------------------------------------|
 D-----------------------------------------------------------------------------------------|
 A-----------------------------------------------------------------------------------------|
 E-----------------------------------------------------------------------------------------|

     G                                   EM
 e-----------------------------------------------------------------------------------------|
 B-----------------------------------------------------------------------------------------|
 G------0-0-0-------------0-0-0----2-2-2----0-0-0-------------0-0-0----2-2-2---------------|
 D----0--------0-4-4-4--0--------0--------0--------0-4-4-4--0--------0---------------------|
 A-----------------------------------------------------------------------------------------|
 E-----------------------------------------------------------------------------------------|

      C                                   D
 e-----------------------------------------------------------------------------------------|
 B-----------------------------------------------------------------------------------------|
 G------0-0-0-------------0-0-0----2-2-2----0-0-0-------------0-0-0----2-2-2---------------|
 D----0--------0-4-4-4--0--------0--------0--------0-4-4-4--0--------0---------------------|
 A-----------------------------------------------------------------------------------------|
 E-----------------------------------------------------------------------------------------|

      G                                   EM
 e-----------------------------------------------------------------------------------------|
 B-----------------------------------------------------------------------------------------|
 G------0-0-0-------------0-0-0----2-2-2----0-0-0-------------0-0-0----2-2-2---------------|
 D----0--------0-4-4-4--0--------0--------0--------0-4-4-4--0--------0---------------------|
 A-----------------------------------------------------------------------------------------|
 E-----------------------------------------------------------------------------------------|

      C                                   D
 e-----------------------------------------------------------------------------------------|
 B-----------------------------------------------------------------------------------------|
 G------0-0-0-------------0-0-0----2-2-2----0-0-0-------------0-0-0----2-2-2---------------|
 D----0--------0-4-4-4--0--------0--------0--------0-4-4-4--0--------0---------------------|
 A-----------------------------------------------------------------------------------------|
 E-----------------------------------------------------------------------------------------|
            
Submit corrections

↑ Back to top | Tablatures and chords for acoustic guitar and electric guitar, ukulele, drums are parodies/interpretations of the original songs. You may use it for private study, scholarship, research or language learning purposes only