Home » J » Jay Chou »

Jay Chou - Bu Neng Shuo De Mi Mi Ukulele

Artists:  A B C D E F G H I J K L M N O P Q R S T U V W X Y Z # 

Bu Neng Shuo De Mi Mi Ukulele

(ver. 1) Click to play this song!
Jay Chou
I really like the movie and the OST also!

%E4%B8%8D%E8%83%BD%E8%AA%AA%E7%9A%84%E7%A7%98%E5%AF%86-secret-cannot-be-told-
translation-pinyin-lyrics/" (Simplified Version)

If you have something to ask or correct my chord, just feel free to hit me at 
--------------------------
     G       Cadd9   Em      Am      D       

E||--3----|--3----|--0----|--0----|--2----|-------||
B||--3----|--3----|--0----|--1----|--3----|-------||
G||--0----|--0----|--0----|--2----|--2----|-------||
D||--0----|--2----|--2----|--2----|--0----|-------||
A||--3----|--3----|--2----|--0----|--0----|-------||
E||--3----|-------|--0----|--0----|--0----|-------||



--------------------------

Intro and Verse 1:
E||--------------------------|--------------------------|-----||
B||--------------------------|--------------------------|-----||
G||-----0--0--0-----0--0--0--|-----0--0--0-----2--2--2--|-----||
D||-----0--0--0-----4--4--4--|-----0--0--0-----0--0--0--|-----||
A||--------------------------|--------------------------|-----||
E||--3-----------3-----------|--3-----------3-----------|-----||

Verse 1:
leng ka fei li kai le bei dian
wo ren zhu de qing xu zai hen hou mian

pin ming xiang wan hui de cong qian
zai wo lian shang yi jiu qing xi ke jian

zui mei de bu shi xia yu tian
shi ceng yu ni duo guo yu de wu yan

hui yi de hua mian
zai dang zhe qiu qian
meng kai shi bu tian

(keep playing it till "ni shuo ba ai" which in the chorus)

-------------------------

Chorus:

              G
ni shuo ba ai jian jian
fang xia hui zou geng yuan

             Cadd9
you he bi qu gai bian
yi cuo guo de shi jian

              Em
ni yong ni de zhi jian
zu zhi wo shuo zai jian

                   Am
xiang xiang ni zai shen bian
                      D
zai wan quan shi qu zhi qian

               G
ni shuo ba ai jian jian
fang xia hui zou geng yuan

                Cadd9
huo xu ming yun de qian
zhi rang wo men yu jian

                 Em
zhi rang wo men xianglian
zhe yi ji de qiu tian

                 Am
piao luo hou cai fa xian
                 D
zhe xing fu de sui pian

              G
yao wo zen me jian


Cadd9/G/Cadd9/G.....



[Repeat from Verse 1 till end]
            
Submit corrections

↑ Back to top | Tablatures and chords for acoustic guitar and electric guitar, ukulele, drums are parodies/interpretations of the original songs. You may use it for private study, scholarship, research or language learning purposes only