» » »

J-Ax - Ribelle E Basta Tabs

Artists:  A B C D E F G H I J K L M N O P Q R S T U V W X Y Z # 

Ribelle E Basta Tabs

(ver. 1) Click to play this song!
J-Ax
 Rating:
2.6/5 (23 votes)

 Ribelle E Basta  lessons Tabs too difficult? Try these video lessons and learn fast
 
                Intro:
      e|---------------------------------------------------------------------|
      B|---------------------------------------------------------------------|
      G|---------------------------------------------------------------------|
13\\  D|-5-5-6---5-5-6---5-5-6-----------------------------------------------|
13\\  A|-5-5-6---5-5-6---5-5-6-----------------------------------------------|
11\\  E|-3-3-4---3-3-4---3-3-4---3-4-6-3-4-6-3-4-----------------------------| x2

Verse:
e|---------------------------------------------------------------------------|
B|---4---4---4---4---4---4---6-----8----6------------------------------------|
G|------------------------------8--------------------------------------------|
D|-5---5---6---6---5---5---6-------------------------------------------------|
A|---------------------------------------------------------------------------|
E|---------------------------------------------------------------------------| x8

e|---------------------------------------------------------------------------|
B|---------------------------------------------------------------------------|
G|---------------------------------------------------------------------------|
D|-5-5-6---5-5-6---5-5-6-----------------------------------------------------|
A|-5-5-6---5-5-6---5-5-6-----------------------------------------------------|
E|-3-3-4---3-3-4---3-3-4---3-4-6-3-4-6-3-4-----------------------------------| x2

Chorus:
e|---------------------------------------------------------------------------|
B|---------------------------------------------------------------------------|
G|---------------------------------------------------------------------------|
D|-5---6---5---8-------------------------------------------------------------|
A|-5---6---5---8-------------------------------------------------------------|
E|-3---4---3---6-------------------------------------------------------------| x4

Verse:
e|---------------------------------------------------------------------------|
B|---4---4---4---4---4---4---6-----8----6------------------------------------|
G|------------------------------8--------------------------------------------|
D|-5---5---6---6---5---5---6-------------------------------------------------|
A|---------------------------------------------------------------------------|
E|---------------------------------------------------------------------------| x4

e|---------------------------------------------------------------------------|
B|---------------------------------------------------------------------------|
G|---------------------------------------------------------------------------|
D|-5-5-6---5-5-6---5-5-6-----------------------------------------------------|
A|-5-5-6---5-5-6---5-5-6-----------------------------------------------------|
E|-3-3-4---3-3-4---3-3-4---3-4-6-3-4-6-3-4-----------------------------------| x2

e|---------------------------------------------------------------------------|
B|---4---4---4---4---4---4---6-----8----6------------------------------------|
G|------------------------------8--------------------------------------------|
D|-5---5---6---6---5---5---6-------------------------------------------------|
A|---------------------------------------------------------------------------|
E|---------------------------------------------------------------------------| x5

e|---------------------------------------------------------------------------|
B|---------------------------------------------------------------------------|
G|---------------------------------------------------------------------------|
D|-5-5-6---5-5-6---5-5-6-----------------------------------------------------|
A|-5-5-6---5-5-6---5-5-6-----------------------------------------------------|
E|-3-3-4---3-3-4---3-3-4---3-4-6-3-4-6-3-4-----------------------------------| x2

e|---------------------------------------------------------------------------|
B|---4---4---4---4---4---4---6-----8----6------------------------------------|
G|------------------------------8--------------------------------------------|
D|-5---5---6---6---5---5---6-------------------------------------------------|
A|---------------------------------------------------------------------------|
E|---------------------------------------------------------------------------| x4

Chorus:
e|---------------------------------------------------------------------------|
B|---------------------------------------------------------------------------|
G|---------------------------------------------------------------------------|
D|-5---6---5---8-------------------------------------------------------------|
A|-5---6---5---8-------------------------------------------------------------|
E|-3---4---3---6-------------------------------------------------------------| x4

Outro:
e|-------------------------------------------------------------------------------|
B|-------------------------------------------------------------------------------|
G|-------------------------------------------------------------------------------|
D|-11\\--------------------------------------------------------------------------|
A|-11\\--------------------------------------------------------------------------|
E|-13\\--------------------------------------------------------------------------|            
Submit corrections


        Ribelle E Basta  lessons Hard to play? Try these video lessons and learn fast Ribelle E Basta  lessons
        
↑ Back to top | Tablatures and chords for acoustic guitar and electric guitar, ukulele, drums are parodies/interpretations of the original songs. You may use it for private study, scholarship, research or language learning purposes only