Home » J » Jawbox »

Jawbox - Static Tabs

Artists:  A B C D E F G H I J K L M N O P Q R S T U V W X Y Z # 

Static Tabs

(ver. 2) Click to play this song!
Jawbox
This is a song by Jawbox of their Novelty album.  Played the way it's played
on the album, it doesn't sound sound so good solo.


The bass opens alone (4 string bass) this is also the verse
g-----------------------------------------------------------------------------
---------------------
d-----------------------------------------------------------------------------
---------------------
a---------------------------------------------------------------5--5-5--5--5-5
----------------
e--2--2-2--3--3-3--5--5-5--2--2-2--0--0-0--2--2-2--------------------2--2-2--3
--3-
g------------------------------------------------------------------:|
d------------------------------------------------------------------:|
a------------------------------------------------------------------:|
e  3--5--5-5--2--2-2--3--3-3--3--3-3--3--3-3--3--3-3-:| 

guitar 1:

|:A5/                  G5/:|
Guitar2:
                                                                          (to
verse)

e--------------------------------------5-------5-------0-----0---:|-----------
-----------
b------v9--9--9---9-------------------------------------0-------:|------------
-----------
g------v9--9--9---9--------------5----5--4----4--2-----2---2:|----(2)s/4-4-s/6
-6
d
a
e

guitar 1 verse
|:F#5..G5..A5..F#5..E5..F#5..D5.....F#5..G5..A5..F#5..G5........:|

guitar 2 (this is going to be a pain!)
e -----5------5---------5---------5-----------7-------5-----------------... 
b ---7------7--------7---------7-----------5-------7------7--7--7--7-...
g 6----6--6---6--6------6--6-------6--6------6------6---7--7--7--7...
d
a
e

        congradulations sister               you've put your self right
over...
e
-----5---------5--------5----------5------------7--------5--------------------
--:|
b
---7--------7---------7----------7------------5-------------------7--7--7--7--
:|      
g -6----6--6------6--6-----6--6-------6--6-------6--6----6--6--7--7--7--7-:|
        
       though you don't think I understand      it.

refrain:
guitar1:*
B5//////F#5///////E5///////A5///////B5///////A5///////G5///////D5///////
guitar2:*
B5//////F#5///////E5///////A5///////B5///////C#5///////D5///////A5//////...

...e--------14---------14------
   b-s/15-----15---------15--
   g----------------14--------14

*(during the B5 the 3rd and 4th fingers are lifted and hammered on again, and
g2's F#5 and E5 chords are on the 9th and 7th fret) 

solo:?
e-----------------------------------------------------------------------------
--------------------
b-----------------------------------------------------------------------------
--------------------
g-----------------------------------------------------------------------------
--------------------
d
9b------------------------------------------------------------------------9b--
---------------
a------9b------------------------------4-4-------5--5--h7--7--p5--5-----9b----
----------
e-----------9b-7-h9--5---7-7-5-5-------5-5---------------------------------9b-
7-h9--5

e-----------------------------------------------------------------------------
----------...
b-----------------------------------------------------------------------------
----------...
g----------------------------------------------11---11----11--11-s\9v--s\6--4-
...
d-----------------------------------------------------------------------------
---------...
a-------------------------------12--10--12----12---12-------------------------
--...
e--v7--7-7--7-7--7----7-------------------------------------------------------
----...

e----------------------------------------------------
b----------------------------------------------------
g-----------------------------~999999999999
d 9b-------------------------~999999999999
a----9b---------------------------------------------
e-------9b---7-h9--5-----------------------------


v=vibrato            s/=slideup
b=bend              h=hammer on  
p=pull off            s\=slide down    ~=slow bend
            
Submit corrections

↑ Back to top | Tablatures and chords for acoustic guitar and electric guitar, ukulele, drums are parodies/interpretations of the original songs. You may use it for private study, scholarship, research or language learning purposes only