Home » J » Jason Mraz »

Jason Mraz - Bella Luna Tabs

Artists:  A B C D E F G H I J K L M N O P Q R S T U V W X Y Z # 

Bella Luna Tabs

(ver. 1) Click to play this song!
Jason Mraz
 Rating:
4.4/5 (11 votes)
                [First Verse]
e|-------------------|
B|-------------------|
G|--5-----5---5---5--|
D|--7-----7---7---7--|
A|--7-----7---7---7--|
E|5---5-5---5---5----|
Mystery the moon

e|-------------------|
B|-------------------|
G|--7-----7---7---7--|
D|--7-----7---7---7--|
A|-------------------|
E|7---7-7---7---7----|
A hole in the sky

e|-------------------|
B|-------------------|
G|--7-----7---7---7--|
D|--7-----7---7---7--|
A|-------------------|
E|7---7-7---7---7----|
A supernatural nightlight

e|-------------------|
B|-------------------|
G|--5-----5---5---5--|
D|--7-----7---7---7--|
A|--7-----7---7---7--|
E|5---5-5---5---5----|
So full but often right

e|-------------------|
B|-------------------|
G|--7-----7---7---7--|
D|--7-----7---7---7--|
A|5---5-5---5---5----|
E|-------------------|
A pair of eyes a closin' one

e|-------------------|
B|-------------------|
G|--5-----5---5---5--|
D|--7-----7---7---7--|
A|--7-----7---7---7--|
E|5---5-5---5---5----|
A chosen child of golden sun

e|-------------------|
B|-------------------|
G|--7-----7---7---7--|
D|--7-----7---7---7--|
A|-------------------|
E|7---7-7---7---7----|
A marble dog that chases cars

e|---|
B|---|
G|-9-|
D|-9-|
A|-7-|
E|---|
To farthest reaches of the beach and far beyond into the swimming sea of stars

[Interlude]
e|---------------------------------------------------------------|
B|---------------------------------------------------------------|
G|---5-----5--------------10-----10--9-9-------------------------|
D|---7-----7---7-----7----10-----10--9-9-------------------------|
A|---7-----7---7-----7--8----8-8-----7-7-7-7-7-5-----------------|
E|-5---5-5---7---7-7-----------------------------8-7-------------|

e|---------------------------------------------------------------|
B|---------------------------------------------------------------|
G|---5-----5--------------10-----10--9---------------------------|
D|---7-----7---7-----7----10-----10--9---------------------------|
A|---7-----7---7-----7--8----8-8-----7---------------------------|
E|-5---5-5---7---7-7---------------------------------------------|

[Verse 2]
e|-------------------|
B|-------------------|
G|--5-----5---5---5--|
D|--7-----7---7---7--|
A|--7-----7---7---7--|
E|5---5-5---5---5----|
A cosmic fish they love to kiss

e|-------------------|
B|-------------------|
G|--7-----7---7---7--|
D|--7-----7---7---7--|
A|-------------------|
E|7---7-7---7---7----|
They're giving birth to constellation

e|-------------------|
B|-------------------|
G|--7-----7---7---7--|
D|--7-----7---7---7--|
A|-------------------|
E|7---7-7---7---7----|
No riffs and oh no reservation

e|------------------------|
B|------------------------|
G|--5-----5---5---5-------|
D|--7-----7---7---7---7---|
A|--7-----7---7---7--7-7-5|
E|5---5-5---5---5---------|
If they should fall you get a wish or dedication

e|-------------------|
B|-------------------|
G|--7-----7---7---7--|
D|--7-----7---7---7--|
A|5---5-5---5---5----|
E|-------------------|
May I suggest you get the best

e|-------------------|
B|-------------------|
G|--5-----5---5---5--|
D|--7-----7---7---7--|
A|--7-----7---7---7--|
E|5---5-5---5---5----|
For nothing less than you and I

e|-------------------|
B|-------------------|
G|--7-----7---7---7--|
D|--7-----7---7---7--|
A|-------------------|
E|7---7-7---7---7----|
Let's take a chance as this romance is rising over 

e|---|
B|---|
G|-9-|
D|-9-|
A|-7-|
E|---|
before we lose the lighting

[Bridge]
e|------------------------|
B|------------------------|
G|---7-----7--------------|
D|---7-----7----5-----5---|
A|-5---5-5------5-----5---|
E|------------3---3-3-----|
              Oh Bella Bella please

e|---------------------------------------------------------------|
B|---------------------------------------------------------------|
G|---5-----5---------------7-----7---7---7-----------------------|
D|---5-----5---3-----3-----7-----7---7---7-----------------------|
A|-3---3-3-----3-----3---5---5-5---5---5-------------------------|
E|-----------1---1-1---------------------------------------------|
         Bella you beautiful Luna

e|---|
B|---|
G|-9-|
D|-9-|
A|-7-|
E|---|
Oh Bella do what you do

e|---------------------------------------------------------------|
B|---------------------------------------------------------------|
G|---5-----5--------------10-----10--9-9-------------------------|
D|---7-----7---7-----7----10-----10--9-9-------------------------|
A|---7-----7---7-----7--8----8-8-----7-7-7-7-7-5-----------------|
E|-5---5-5---7---7-7-----------------------------8-7-------------|
                                         I'm singing mystery the 

e|-----------------------------------------|
B|-----------------------------------------|
G|---5-----5--------------10-----10--9-----|
D|---7-----7---7-----7----10-----10--9-----|
A|---7-----7---7-----7--8----8-8-----7-----|
E|-5---5-5---7---7-7-----------------------|
Moon

[Verse 3]
e|-------------------|
B|-------------------|
G|--5-----5---5---5--|
D|--7-----7---7---7--|
A|--7-----7---7---7--|
E|5---5-5---5---5----|
You are an illuminated anchor

e|-------------------|
B|-------------------|
G|--7-----7---7---7--|
D|--7-----7---7---7--|
A|-------------------|
E|7---7-7---7---7----|
Of leads to infinite number

e|-------------------|
B|-------------------|
G|--7-----7---7---7--|
D|--7-----7---7---7--|
A|-------------------|
E|7---7-7---7---7----|
Crashing waves and breaking thunder

e|------------------------|
B|------------------------|
G|--5-----5---5---5-------|
D|--7-----7---7---7---7---|
A|--7-----7---7---7--7-7-5|
E|5---5-5---5---5---------|
Tiding the even flows of hunger

e|-------------------|
B|-------------------|
G|--7-----7---7---7--|
D|--7-----7---7---7--|
A|5---5-5---5---5----|
E|-------------------|
You're dancing naked there for me

e|-------------------|
B|-------------------|
G|--5-----5---5---5--|
D|--7-----7---7---7--|
A|--7-----7---7---7--|
E|5---5-5---5---5----|
You expose all memory and make the most of boundary

e|-------------------|
B|-------------------|
G|--7-----7---7---7--|
D|--7-----7---7---7--|
A|-------------------|
E|7---7-7---7---7----|
You're the ghost of royalty imposing love you are the queen and king 

e|---|
B|---|
G|-9-|
D|-9-|
A|-7-|
E|---|
Combining everything into twining like a ring around the 

[Bridge]
e|------------------------------------|
B|------------------------------------|
G|---7-----7----------------5-----5---|
D|---7-----7----5-----5-----5-----5---|
A|-5---5-5------5-----5---3---3-3-----|
E|------------3---3-3-----------------|
Finger of a girl I'm just a singer, you're the world

e|------------------------------------------------------|
B|------------------------------------------------------|
G|--------------7-----7---9-----9--9-9------------------|
D|--3-----3-----7-----7---9-----9--9-9------------------|
A|--3-----3---5---5-5---7---7-7----7-7--7-7-7-5---------|
E|1---1-1----------------------------------------8-7----|
All I can bring ya  is the language of a lover

e|---------------------------------------------|
B|---------------------------------------------|
G|5-----5-----7-----7----------------5-----5---|
D|--7-----7---7-----7----5-----5-----5-----5---|
A|--7-----7-5---5-5------5-----5---3---3-3-----|
E|5---5-5----------3---3-3---------------------|
Bella Luna, my beautiful, beautiful moon

e|------------------------------------------------------|
B|------------------------------------------------------|
G|--------------7-----7---9-----9--9-9------------------|
D|--3-----3-----7-----7---9-----9--9-9------------------|
A|--3-----3---5---5-5---7---7-7----7-7--7-7-7-5---------|
E|1---1-1----------------------------------------8-7----|
How you swoon me like no other

[Interlude]
e|-------------------|
B|-------------------|
G|--5-----5---5---5--|
D|--7-----7---7---7--|
A|--7-----7---7---7--|
E|5---5-5---5---5----|

e|-------------------|
B|-------------------|
G|--7-----7---7---7--|
D|--7-----7---7---7--|
A|-------------------|
E|7---7-7---7---7----|

e|-------------------|
B|-------------------|
G|--7-----7---7---7--|
D|--7-----7---7---7--|
A|-------------------|
E|7---7-7---7---7----|

e|------------------------|
B|------------------------|
G|--5-----5---5---5-------|
D|--7-----7---7---7---7---|
A|--7-----7---7---7--7-7-5|
E|5---5-5---5---5---------|

[Verse 4]
e|-------------------|
B|-------------------|
G|--7-----7---7---7--|
D|--7-----7---7---7--|
A|5---5-5---5---5----|
E|-------------------|
May I suggest you get the best

e|-------------------|
B|-------------------|
G|--5-----5---5---5--|
D|--7-----7---7---7--|
A|--7-----7---7---7--|
E|5---5-5---5---5----|
Of your wish may I insist that no contest for little you or smaller I

e|-------------------|
B|-------------------|
G|--7-----7---7---7--|
D|--7-----7---7---7--|
A|-------------------|
E|7---7-7---7---7----|
A larger chance happened, all them they lie

e|---|
B|---|
G|-9-|
D|-9-|
A|-7-|
E|---|
On the rise, on the brink of our lives

[Bridge]
e|------------------------|
B|------------------------|
G|---7-----7--------------|
D|---7-----7----5-----5---|
A|-5---5-5------5-----5---|
E|------------3---3-3-----|
Bella please

e|------------------------------------------------------|
B|------------------------------------------------------|
G|--------------7-----7---7---7---7--9-9----------------|
D|--3-----3-----7-----7---7---7---7--9-9----------------|
A|--3-----3---5---5-5---5---5---5----7-7--7-7-7-5-------|
E|1---1-1----------------------------------------8-7----|
Bella you beautiful luna

e|---------------------------------------------------------------|
B|---------------------------------------------------------------|
G|---9-----9--9-9------------------------------------------------|
D|---9-----9--9-9------------------------------------------------|
A|-7---7-7----7-7--7-7-7-5---------------------------------------|
E|-------------------------8-7-----------------------------------|
Oh bella do what you do

e|------------------------|
B|------------------------|
G|---7-----7--------------|
D|---7-----7----5-----5---|
A|-5---5-5------5-----5---|
E|------------3---3-3-----|
Bella luna, my beautiful

e|------------------------------------------------------|
B|------------------------------------------------------|
G|--------------7-----7---9-----9--9--------------------|
D|--3-----3-----7-----7---9-----9--9--------------------|
A|--3-----3---5---5-5---7---7-7----7--7-7-7-5-----------|
E|1---1-1----------------------------------------8-7----|
My beautiful moon, how you swoon me like no other

[Final Interlude]
e|-------------------|
B|-------------------|
G|--5-----5---5---5--|
D|--7-----7---7---7--|
A|--7-----7---7---7--|
E|5---5-5---5---5----|

e|-------------------|
B|-------------------|
G|--7-----7---7---7--|
D|--7-----7---7---7--|
A|-------------------|
E|7---7-7---7---7----|

e|-----------------------------|
B|-----------------------------|
G|--10-----10--9-9-------------|
D|--10-----10--9-9-------------|
A|8----8-8-----7-7--7-7-7-5----|
E|--------------------------8-7|

e|-------------------|
B|-------------------|
G|--5-----5---5---5--|
D|--7-----7---7---7--|
A|--7-----7---7---7--|
E|5---5-5---5---5----|

e|-------------------|
B|-------------------|
G|--7-----7---7---7--|
D|--7-----7---7---7--|
A|-------------------|
E|7---7-7---7---7----|

e|-----------------------------|
B|-----------------------------|
G|10-------9------------------5|
D|10-------9------------------7|
A|8--------7---7-7-7-5--------7|
E|---------------------8-7----5|            
Submit corrections

↑ Back to top | Tablatures and chords for acoustic guitar and electric guitar, ukulele, drums are parodies/interpretations of the original songs. You may use it for private study, scholarship, research or language learning purposes only