Home » J » Jarryd James »

Jarryd James - Do You Remember Tabs

Artists:  A B C D E F G H I J K L M N O P Q R S T U V W X Y Z # 

Do You Remember Tabs

(ver. 2) Click to play this song!
Jarryd James
 
e||------0-0-2-2-4-------0-0-2-2-4--|-------0-0-2-2-4-------0-0-2-2-4---|
B||--2-2-------------2-2------------|---2-2-------------2-2-------------|
G|*---------------------------------|-----------------------------------|
D|*---------------------------------|-----------------------------------|
A||---------------------------------|-----------------------------------|
E||---------------------------------|-----------------------------------|
    

e|-----------0-0-2-----------0-0-2--|-----------0-0-2-----------0-0-2--||
B|---0-0-2-2---------0-0-2-2--------|---0-0-2-2---------0-0-2-2--------||
G|----------------------------------|----------------------------------*|
D|----------------------------------|----------------------------------*|
A|----------------------------------|----------------------------------||
E|----------------------------------|----------------------------------||


VERSE:

C#m                                        E
When did we lose our way? Easier to let it go,  mmm
C#m                                           E
So many can't tell anybody, harder to let you know


PRE CHORUS:
                    B
Call me when you've made up your mind but you won't

Caught up in the way that you played my heart
     C#m
Only love could ever hit this hard


CHORUS:

C#m                                                 E
Oh, don't be scared about it, don't forget it was real
                                    B
Do you remember the way it made you feel?
                                      C#m
Do you remember the things it let you feel?


VERSE:

C#m                                                 E
How do I make you stay, when it's easier to let you go?    nanah
C#m                                                 E
Nobody knows what we know about it, no one needs to know


PRE CHORUS:
                    B
Call me when you've made up your mind but you won't

Caught up in the way that you played my heart
     C#m
Only love could ever hit this hard


CHORUS:

C#m                                                 E
Oh, don't be scared about it, don't forget it was real
                                    B
Do you remember the way it made you feel?
                                      C#m
Do you remember the things it let you feel?


BRIDGE:

         C#m
When you love to your limit, you gave all you're given
              B
Who you gonna pray to when you're there?
                                      F#m
Will you find out that there ain't no other love
                  C#m
No other love for you


CHORUS:

C#m                                                 E
Oh, don't be scared about it, don't forget it was real
                                    B
Do you remember the way it made you feel?
                                      C#m
Do you remember the things it let you feel?


CHORUS:

C#m                                                 E
Oh, don't be scared about it, don't forget it was real
                                    B
Do you remember the way it made you feel?
                                      C#m
Do you remember the things it let you feel?



*****____________________________________note______________________________________*****

If you are proficient you might also be able to add in the 2nd notes that are playing, 
I couldn't seem to PM and play the 2nd notes so just stuck to the riff, even up the neck
(c#m on 4th fret or 9th fret)...I guess that you could add in a 2nd guitar to play it and
add in the bass note too:


Riff: PM all
GTR 1:
e||------0-0-2-2-4-------0-0-2-2-4--|-------0-0-2-2-4-------0-0-2-2-4---|
B||--2-2-------------2-2------------|---2-2-------------2-2-------------|
G|*---------------------------------|-----------------------------------|
D|*---------------------------------|-----------------------------------|
A||---------------------------------|-----------------------------------|
E||---------------------------------|-----------------------------------|
 |                                  |                                   |
GTR 2:                              |                                   |
e||--4-4-4-4-4-4-4---4-4-4-4-4-4-4--|---4-4-4-4-4-4-4---4-4-4-4-4-4-4---|
B||---------------------------------|-----------------------------------|
G|*---------------------------------|-----------------------------------|
D|*---------------------------------|---------------------------1---1---|
A||--4------------------------------|---4---------------4---4-----------|
E||---\_____________________________|__/-\_____________/----------------|


GTR 1:
e|-----------0-0-2-----------0-0-2--|-----------0-0-2-----------0-0-2--||
B|---0-0-2-2---------0-0-2-2--------|---0-0-2-2---------0-0-2-2--------||
G|----------------------------------|----------------------------------*|
D|----------------------------------|----------------------------------*|
A|----------------------------------|----------------------------------||
E|----------------------------------|----------------------------------||
 |                                  |                                  ||
GTR 2:                              |                                  ||
e|---2-2-2-2-2-2-2---2-2-2-2-2-2-2--|---2-2-2-2-2-2-2---2-2-2-2-2-2-2--||
B|----------------------------------|----------------------------------||
G|----------------------------------|----------------------------------*|
D|---2------------------------------|---2---------------2--------------*|
A|----\_____________________________|__/-\_____________/---------------||
E|----------------------------------|----------------------------------||
            
Submit corrections

↑ Back to top | Tablatures and chords for acoustic guitar and electric guitar, ukulele, drums are parodies/interpretations of the original songs. You may use it for private study, scholarship, research or language learning purposes only