Home » J » Jarryd James »

Jarryd James - Do You Remember Tabs

Artists:  A B C D E F G H I J K L M N O P Q R S T U V W X Y Z # 

Do You Remember Tabs

(ver. 1) Click to play this song!
Jarryd James
Tuning: Standard

CAPO 4

Intro and verse     

   Am           (x4)   C           (x4)
e|---------------------3-3---------------------|
B|-0-0-3-3-----------------3-3-----------------|
G|---------0-0-2---------------0-0-2-----------|
D|---------------------------------------------|
A|---------------------------------------------|
E|---------------------------------------------|

Pre-chorus   [Call me when you've made up your mind...]

   G             (x4)  Am          (x4)
e|-3-3-----------------------------------------|
B|-----2-2-------------0-0-3-3-----------------|
G|---------0-0-2---------------0-0-2-----------|
D|---------------------------------------------|
A|---------------------------------------------|
E|---------------------------------------------|

Chorus

  Am            (x4)   C             (x4)  G            (x4)  Am          (x4)
e|---------------------3-3-----------------3-3-------------------------------|
B|-0-0-3-3-----------------3-3-----------------2-2------------0-0-3-3--------|
G|---------0-0-2---------------0-0-2---------------0-0-2--------------0-0-2--|
D|---------------------------------------------------------------------------|
A|---------------------------------------------------------------------------|
E|---------------------------------------------------------------------------|

Bridge: just play straight chords as below


          Am
When you love to your limit
      Am 
You gave all you're given
                G                   G
Who you gonna pray to when you're there?
                                       Dm
Will you find out that there ain't no other love
                  Am
No other love for you            
Submit corrections

↑ Back to top | Tablatures and chords for acoustic guitar and electric guitar, ukulele, drums are parodies/interpretations of the original songs. You may use it for private study, scholarship, research or language learning purposes only