» » »

Jarrad Wright - The Big Lez Show - Choomah Island 2 Tabs

Artists:  A B C D E F G H I J K L M N O P Q R S T U V W X Y Z # 

The Big Lez Show - Choomah Island 2 Tabs

(ver. 1) Click to play this song!
Jarrad Wright
 Rating:
5/5 (3 votes)

 The Big Lez Show - Choomah Island 2  lessons Tabs too difficult? Try these video lessons and learn fast
 
                GUITAR/LOOP 1 (backround)

e|---------------------------------------------------------------------------|
B|----------------------------------0----------------------------------------|
G|---------------0-------------------------------------0---------------------|
D|------------------------10-----------------10------------------------------|   (X4)
A|------0--------------------------------------------------------------------|
E|---------------------------------------------------------------------------|      

e|---------------------------------------------------------------------------|
B|----------------------------------0----------------------------------------|
G|---------------0-------------------------------------0---------------------|
D|------------------------10-----------------10------------------------------|   (X4)
A|------7--------------------------------------------------------------------|
E|---------------------------------------------------------------------------|      

GUITAR 2
e|---------------------------------------------------------------------------|
B|------13\10/17\13------------------13\10/17\13-----------------------------|
G|---------------------------------------------------------------------------|
D|---------------------------------------------------------------------------|
A|------0----------------------------0---------------------------------------|
E|----------=-12---------------------------12---------------------------------|

e|---------------------------------------------------------------------------|
B|-------12\8/15\12------------------12\8/15\12------------------------------|
G|---------------------------------------------------------------------------|
D|---------------------------------------------------------------------------|
A|---------------------------------------------------------------------------|
E|---=----7----0----------------------7----0----------------------------------|

e|---------------------------------------------------------------------------|
B|------13\10/17\13------------------13\10/17\13-----------------------------|
G|---------------------------------------------------------------------------|
D|---------------------------------------------------------------------------|
A|------0----------------------------0---------------------------------------|
E|------------12---------------------------12---------------------------------|

e|---------------------------------------------------------------------------|
B|-------12\8/15\12------------------12\8/15----15/17------------------------|
G|---------------------------------------------------------------------------|
D|---------------------------------------------------------------------------|
A|-------10---10-------------------------------------------------------------|
E|-----------------------------------12---12---------------------------------|

e|-------------------------------------+12-----------------------------------|
B|-------13-------10-------10/12---------------------------------------------|
G|--------------------------------------9------------------------------------|
D|---------------------------------------------------------------------------|
A|---------------------------------------------------------------------------|
E|---------------------------------------------------------------------------|

e|----------------------------------------+12--------------------------------|
B|-----------------------------------------+12-------------------------------|
G|---------------------------------------------------------------------------|
D|------/14-------10------\14------9-----------------------------------------|
A|---------------------------------------------------------------------------|
E|---------------------------------------------------------------------------|            
Submit corrections


        The Big Lez Show - Choomah Island 2  lessons Hard to play? Try these video lessons and learn fast The Big Lez Show - Choomah Island 2  lessons
        
↑ Back to top | Tablatures and chords for acoustic guitar and electric guitar, ukulele, drums are parodies/interpretations of the original songs. You may use it for private study, scholarship, research or language learning purposes only