Home » J » Japan »

Japan - The Unconventional Tabs

Artists:  A B C D E F G H I J K L M N O P Q R S T U V W X Y Z # 

The Unconventional Tabs

(ver. 1) Click to play this song!
Japan
Japan - The unconventional from the album Adolescent Sex (1978)



e----3-3--3-3-3---3-3-3-3-3--3---3-3--3-3-3------|
B----3-3--3-3-3---3-3-3-3-3--3---3-3--3-3-3------|
G----3-3--3-3-3---3-3-3-3-3--3---3-3--3-3-3------|
D----5-5--5-5-5---5-5-5-5-5--5---5-5--5-5-5------|  part1
A----5-5--5-5-5---5-5-5-5-5--5---5-5--5-5-5------|
E----3-3--3-3-3---3-3-3-3-3--3---3-3--3-3-5------|


e--------------------------------------------|
B--------------------------------------------|
G---5-3-5-3----------------------------------| 
D----------h5-3h5---5------------------------|  part 2
A-----------------5--------------------------|
E--------------------------------------------|


e--------------------------------------------|
B--------------------------------------------|
G--------------------------------------------|
D---3-1-3-1----------------------------------|  part 3
A----------h3-1h3---3------------------------|
E-----------------3--------------------------|




VERSE

  G  

Take Position and love will take a stand
That is the way it goes

No inquisition no cynical demands
No-one should ever know



CHORUS
               
              C            

Because I'm dancing
Dancing to your heart


                G 

Dancing to your heart now baby
Oh what a way to start


 D

Well I'm trying to find
All the love we discovered


 C

That is the way it goes





VERSE 2

 G 

No perversion
In this unconventional love
Nothing I'd rather see

No diversion
In this unintentional love
No way I'd rather be


REPEAT CHORUS




part1 and part2 are the intro

play part2 when the chord is G and part3 when the chord is C    


all the chords are power chords made up of three notes  tonic + 5th + 8th  es G is G+D+G

the whole song is in the key of G and you can improvise on a G minor pentatonic scale



wish this was useful
            
Submit corrections

↑ Back to top | Tablatures and chords for acoustic guitar and electric guitar, ukulele, drums are parodies/interpretations of the original songs. You may use it for private study, scholarship, research or language learning purposes only