» » »

Janes Addiction - True Nature Tabs

Artists:  A B C D E F G H I J K L M N O P Q R S T U V W X Y Z # 

True Nature Tabs

(ver. 1) Click to play this song!
Janes Addiction
 Rating:
4/5 (4 votes)

 True Nature lessons Tabs too difficult? Try these video lessons and learn fast
 
                Janes Addiction



Tuning: DADGBE
NH= Natural Harmonics
h = hammer-on
p = pull-off
b = bend
/ = slide up
\ = slide down
5 = power chord
! = Flat (as in Guitar tuning)

Main Riff

 

e|--------------------------------------------------------------------------------|
B|--------------------------------------------------------------------------------|
G|--------------------------------------------------------------------------------|
D|----------h-------------h---------h---------------------------------------------|
A|--------3--2-0--0---0-12-10--0--3--2---0---0--0---------------------------------|
D|16\0-0--3--2-0--0---0-12-10--0--3--2---0---0--0---------------------------------|
      
   	


NH---------------------------------------------------------------

e|--------------------------------------------------------------------------------|
B|--------------------------------------------------------------------------------|
G|--------------------------------------------------------------------------------|
D|7-7-7-7-7-7-7-7-7-7-7-7-7-7-7-7-7-7-7-7-7-7-7-7-7-7-7-7-7-7-7-7-----------------|
A|--------------------------------------------------------------------------------|
D|--------------------------------------------------------------------------------|

 



e|--------------------------------------------------------------------------------|
B|--------------------------------------------------------------------------------|
G|--------------------------------------------------------------------------------|
D|--h------------h-------h-----------h-----------h--------h-----------------------|
A|-3-2--0--0-0-12-10--0-3-2--0-0-0--3-2-0-0-0--12-10--0--3-2--0-0-0---------------|
D|-3-2--0--0-0-12-10--0-3-2--0-0-0--3-2-0-0-0--12-10--0--3-2--0-0-0---------------|

 
Chorus

 
E|--------------------------------------------------------------------------------|
B|--------------------------------------------------------------------------------|
G|12-12-12-12-12-12-12-12-12-12-12-12-12-11-11-11-11-11-11-11-11-11-11-11-11-11-11|
D|--------------------------------------------------------------------------------|
A|10-10-10-10-10-10-10-10-10-10-10-10-10--9--9--9--9--9--9--9--9--9--9--9--9--9--9|
D|--------------------------------------------------------------------------------|



e|--------------------------------------------------------------------------------|
B|--------------------------------------------------------------------------------|
G|10-10-10-10-10-10-10-10-10-10-10-10-10-11-11-11-11-11-11-11-11-11-11-11-11-11-11|
D|--------------------------------------------------------------------------------|
A|-8--8--8--8--8--8--8--8--8--8--8--8--8--9--9--9--9--9--9--9--9--9--9--9--9--9--9|
D|--------------------------------------------------------------------------------|




e|--------------------------------------------------------------------------------|
B|--------------------------------------------------------------------------------|
G|10-10-10-10-10-10-10-10-10-10-10-10-10------------------------------------------|
D|--------------------------------------------------------------------------------|
A|-8--8--8--8--8--8--8--8--8--8--8--8--8------------------------------------------|
D|--------------------------------------------------------------------------------|
 

e|--------------------------------------------------------------------------------|
B|--------------------------------------------------------------------------------|
G|12\10-------12\10----------12\10--------12\10-------12\10----------12\10--------|
D|------10/12-------12\10-10-------10-10--------10/12-------12\10-10-------10-----|
A|--------------------------------------------------------------------------------|
D|--------------------------------------------------------------------------------|



e|------------------------------------------10-----10---/13----13---13------------|
B|------------------------------------/10---10-----10---/13----13---13------------|
G|12\10-------12\10-------12\10--10\----------------------------------------------|
D|------12\10-------12\10---------------------------------------------------------|
A|--------------------------------------------------------------------------------|
D|--------------------------------------------------------------------------------|

E|--------------------------------------------------------------------------------|
B|------13(15)--------13----------------------13(15)------------------------------|
G|--------------------12----------------------------------------------------------|
D|--------------------12----------------------------------------------------------|
A|--0-----------------------------------------------------------------------------|
D|--0-----------------------------------------------------------------------------|
      Digitech Whammy- up one octave 


e|--------------------------------------------------------------------------------|
B|5-5-5-5-5-5-5-5-5-5-5-5-5--3-1-1-1-1-1-1-1-1-1-3-4-3-3-1-1-1-1-1-1-1-1-1-1-1-1--|
G|3-3-3-3-3-3-3-3-3-3-3-3-3--1-1-1-1-1-1-1-1-1-1-1-1-3-3-3-3-3-3-3-3-3-3-3-3-3-3--|
D|5-5-5-5-5-5-5-5-5-5-5-5-5-------------------------------------------------------|
A|3-3-3-3-3-3-3-3-3-3-3-3-3--1-3-3-3-3-3-3-3-3-3-3-3-3-3-3-3-3-3-3-3-3-3-3-3-3-3--|
D|--------------------------------------------------------------------------------|
  
e|--------------------------------------------------------------------------------|
B|-3-3--1-1-1-1-1-1-1-1-1-1-1-1-1-------------------------------------------------|
G|-3-3--0-0-0-0-0-0-0-0-0-0-0-0-0-------------------------------------------------|
D|--------------------------------------------------------------------------------|
A|-3-3--3-3-3-3-3-3-3-3-3-3-3-3-3-------------------------------------------------|
D|--------------------------------------------------------------------------------|
 

Solo

     BU     BU      BU       BU       BU    BD       h                   h
e|--------------10--------10------10----------------------------------------------|
B|-13(15)-13(15)--13(15)----13(15)---13(15)----(13)13-10--10-13-10--10-13-10------|
G|------------------------------------------------------13--------13--------13----|
D|--------------------------------------------------------------------------------|
A|--------------------------------------------------------------------------------|
D|--------------------------------------------------------------------------------|
    
Solo 
       h          h          h          h         h           h                     
e|-------------------------------------------------------------------13-13-13-----|
B|10-13-10---10-13-10---10-13-10---10-13-10--10-12-10----10-13-10----13-13-13-----|
G|--------13---------13----------13--------13----------13-------------------------|
D|--------------------------------------------------------------------------------|
A|--------------------------------------------------------------------------------|
D|--------------------------------------------------------------------------------|

           h           h     BU   BU
e|--------------------------------------------------------------------------------|
B|----10-12-10----10-13-10--------------------------------------------------------|
G|-13----------13-----------12(14)12(14)---10---10-10-10\-/7\---------------------|
D|-------------------------------------------12-10-10-10\-/7\---------------------|
A|--------------------------------------------------------------------------------|
D|--------------------------------------------------------------------------------|

Solo (Cont'd)

   PB13   BD              BU                  PB13   BD
e|-(15)------(13)-10--------------------------(15)------(13)-10-------------------|
B|--------------------13 13(15)---\------10---------------------13 13(15)--\------|
G|------------------------------------0--10---------------------------------------|
D|------------------------------------0--10---------------------------------------|
A|--------------------------------------------------------------------------------|
D|--------------------------------------------------------------------------------|

Solo (Cont'd)
              BU  BU      BD      RP       BD       RP     BD RP     BD       BU
e|-----13--15-------(17)----(16)-(16)-(17)----(16)-(16)-(17)-(16)-(17)-(16)-(20)19|
B|-/15----------------------------------------------------------------------------|
G|--------------------------------------------------------------------------------|
D|--------------------------------------------------------------------------------|
A|--------------------------------------------------------------------------------|
D|--------------------------------------------------------------------------------|

   BU
e|20-(22)-------------------------------------------------------------------------|
B|--------------------------------------------------------------------------------|
G|--------------------------------------------------------------------------------|
D|--------------------------------------------------------------------------------|
A|--------------------------------------------------------------------------------|
D|--------------------------------------------------------------------------------|
            
Submit corrections


        True Nature lessons Hard to play? Try these video lessons and learn fast True Nature lessons
        
↑ Back to top | Tablatures and chords for acoustic guitar and electric guitar, ukulele, drums are parodies/interpretations of the original songs. You may use it for private study, scholarship, research or language learning purposes only