» » »

Janes Addiction - Superhero Tabs

Artists:  A B C D E F G H I J K L M N O P Q R S T U V W X Y Z # 

Superhero Tabs

(ver. 2) Click to play this song!
Janes Addiction
 Rating:
4/5 (4 votes)

 Superhero lessons Tabs too difficult? Try these video lessons and learn fast
 
                Intro and Verse:

e|-------------------------------|
B|-10-10-11-10-10-10-10-11-10-11-|
G|-x—-x--x—-x--x--x--x--x--x--x--|
D|-7—-7--8—-7—-7—-7--7--8--7--8--|
A|-------------------------------|
E|-------------------------------|

To get the ‘sound’ of the lick try using a wah-wah pedal with the toe held all the way 
You can slide between the octaves instead of strumming them all if you want

(0:37) Chorus:

These are 3 different variations, there are probably more but they’re all kinda similar. 
Can’t decide on the strumming pattern.

e|--------------------------------------------|
B|--------------------------------------------|
G|-----------------------------(--------6b)---|
D|-5-5-5-(xx)-6-6-6-(xx)-8-8—8-(----6h8---)---|
A|-5-5—5-(xx)-6-6-6-(xx)-8-8—6-(6h8-------)---|
E|-3-3-3-(xx)-4-4-4-(xx)-6-6-6----------------|

e|--------------------------------------------|
B|--------------------------------------------|
G|-----------------------------(-8b9r8---)----|
D|-5-5-(x-xx)-6-6-(x-xx)-8-8—--(-------6-)----|
A|-5-5-(x-xx)-6-6-(x-xx)-8-8—--(---------)----|
E|-3-3-(x-xx)-4-4-(x-xx)-6-6------------------|

e|----------------------------------------|
B|---------------------------(----6b----)-|
G|---------------------------(----6b----)-|
D|-5-5-(x-xx)-6-6-(x-xx)-8-8-(6h8----8p6)-|
A|-5-5—(x-xx)-6-6-(x-xx)-8-8--------------|
E|-3-3-(x-xx)-4-4-(x-xx)-6-6--------------|

e|----------------------------------------|
B|----------------------------------------|
G|----------------------------(6-6-x-6)---|
D|-5-5-(x-xx)-6-6-(x-xx)-8-8—-(6-6-x-6)---|
A|-5-5—(x-xx)-6-6-(x-xx)-8-8—-(4-4-x-4)---|
E|-3-3-(x-xx)-4-4-(x-xx)-6-6--------------|

(0:55): Intro/Verse Lick

(1:14): Chorus

(1:28): Chorus Before Bridge:

e|----------------------------------------------------------|
B|----------------------------8b9r8p6-8p6-8p6---------------|
G|----------------------------8b9r8p6-8p6-8p6---------------|
D|-5-5-(x-xx)-6-6-(x-xx)-8-8------------------8p6-8p6-8p6---|
A|-5-5—(x-xx)-6-6-(x-xx)-8-8--------------------------------|
E|-3-3-(x-xx)-4-4-(x-xx)-6-6--------------------------------|

(1:33): Bridge - I cannot figure it out.

(1:54): Intro/Verse lick)

(2:03): Solo

e|----------------------------------------|
B|-----------------------------9b10-------|
G|-10p8-8-10p8-8-10p8-8-10p8-8------10p8--|
D|----------------------------------------|
A|----------------------------------------|
E|----------------------------------------|

e|----------------------------------------|
B|-----------------------------11b13-9b10-|
G|-10p8-8-10p8-8-10p8-8-10p8-8------------|
D|----------------------------------------|
A|----------------------------------------|
E|----------------------------------------|

e|---------------------------------|
B|---------------------------------|
G|-10p8h10-------------------------|
D|---------8h10p8-6h8p6-8p6--------|
A|--------------------------6s8----|
E|---------------------------------|

(2:03): Bit After solo, not sure if there is even guitar here but you can play this

e|--------------------|
B|--------------------|
G|--------------------|
D|-7-7s8--7s8---------|
A|-7-7s6--7s8---------|
E|-5-5s6--7s8---------|

(2:31) Chorus

(3:11): Outro solo played over Intro/Verse lick. Dave uses a Wah-Wah pedal  but i cant 
it out except for the bit below. Its all pretty much a blues scale with lots of bends and 
hammer ons and pull offs around these frets so just improvise.

(3:20)

e|-13--13--13—---13—-13-—13----13--13—-13---16b18-------------|
B|-16b-16b-16b---16b-16b-16b---16b-16b-16b--------------------|
G|------------------------------------------------------------|
D|------------------------------------------------------------|
A|------------------------------------------------------------|
E|------------------------------------------------------------|

Key:

9b    : bend the string slightly at the 9th fret
9b10  : bend the string until it hits the pitch of the 10th fret
9b10r9: bend the string to the 10th fret then release to 9th
9h10p9: pick the sting at the 9th fret, then hammer on at the 11th fret and pull off at 
9th
9s11  : pick the string at the 9th fret then slide up to the 11th fret
x     : 'mute' the string by placing your finger on the sting but without touching the fretboard
            
Submit corrections


        Superhero lessons Hard to play? Try these video lessons and learn fast Superhero lessons
        
↑ Back to top | Tablatures and chords for acoustic guitar and electric guitar, ukulele, drums are parodies/interpretations of the original songs. You may use it for private study, scholarship, research or language learning purposes only