» » »

Janes Addiction - Summertime Rolls Bass

Artists:  A B C D E F G H I J K L M N O P Q R S T U V W X Y Z # 

Summertime Rolls Bass

(ver. 3) Click to play this song!
Janes Addiction
 Rating:
4/5 (4 votes)

 Summertime Rolls lessons Tabs too difficult? Try these video lessons and learn fast
 
                G------10-----10-----10-----10-----11------13------13------13------13------|
D--------------------------------------------------------------------------|
A--------------------------------------------------------------------------|
E---9------9------9------9------9-------9-------9-------9-------9----------|

G-------13-----13-----13-----13-----13-----11-----10-----10-----10-----------|
D----------------------------------------------------------------------------|
A----------------------------------------------------------------------------|
E----9------12-----12-----12-----12-----12------9------9------9--------------|
            
Submit corrections


        Summertime Rolls lessons Hard to play? Try these video lessons and learn fast Summertime Rolls lessons
        
↑ Back to top | Tablatures and chords for acoustic guitar and electric guitar, ukulele, drums are parodies/interpretations of the original songs. You may use it for private study, scholarship, research or language learning purposes only