» » »

Jake Miller - Selfish Girls Tabs

Artists:  A B C D E F G H I J K L M N O P Q R S T U V W X Y Z # 

Selfish Girls Tabs

(ver. 1) Click to play this song!
Jake Miller
 Rating:
3.2/5 (25 votes)

 Selfish Girls  lessons Tabs too difficult? Try these video lessons and learn fast
 
                Capo: 2nd


E |----------------------------------------------------|
B |-----------0--x-----1-----------------x-------------|
G |-----------0--x-----0-----------------x-------------|
D |--------------------------------------------0-------|
A |--------------------0-------------------------------|
E |--3-------------------------------------------------|


-----------2--x-----------------------3p-0----------|
-----------3--x-----1-------------------------------|
--------------------0-------------------------------|
--0-------------------------------------------------|
--------------------0-----------------------0-------|
----------------------------------------------------|


----------------------------------------------------|
-----------0--x-----2-----------------x-------------|
-----------0--x-----0-----------------x-------------|
----------------------------------------------------|
--------------------0-----------------------0-------|
--3-------------------------------------------------|


----------------------------------------------------||
--1--------1--------0-------------------------------||
--0--------0--------0-------------------------------||
----------------------------------------------------||
--0--------0----------------------------------------||
--------------------3-------------------------------||
            
Submit corrections


        Selfish Girls  lessons Hard to play? Try these video lessons and learn fast Selfish Girls  lessons
        
↑ Back to top | Tablatures and chords for acoustic guitar and electric guitar, ukulele, drums are parodies/interpretations of the original songs. You may use it for private study, scholarship, research or language learning purposes only