Home » J » Jake Bugg »

Jake Bugg - What Doesnt Kill You Tabs

Artists:  A B C D E F G H I J K L M N O P Q R S T U V W X Y Z # 

What Doesnt Kill You Tabs

(ver. 4) Click to play this song!
Jake Bugg
 Rating:
4.3/5 (12 votes)
                [Intro and Verse]
e|-------------------------------------|
B|-------------------------------------| /  \
G|-------------------------------------| |  |
D|----6-6-6/5-5-5-5/3-3-3-3-3-3-3-3----| |x8|
A|----6-6-6/5-5-5-5/3-3-3-3-3-3-3-3----| \  /
E|----4-4-4/3-3-3-3/1-1-1-1-1-1-1-1----|

[Pre-Chorus]
A couple options here. The first is the most basic, the second and third are versions that sound correct to 
me, but may be wrong (I'm still experimenting).

You can either play this:
e|---------------|
B|---------------|
G|------10-/   \-|
D|------10-|x16|-|
A|------8--\   /-|
E|---------------|

Or this:
e|-------------------------|
B|-------------------------|
G|------10-/  \----10-/  \-|
D|------10-|x8|----10-|x8|-|
A|------8--\  /----10-\  /-|
E|-------------------------|

Or possibly (Least likely though) this:
e|-------------------------|
B|-------------------------|
G|------10-/  \----13-/  \-|
D|------10-|x8|----13-|x8|-|
A|------8--\  /----11-\  /-|
E|-------------------------|

[Verse] 
e|-------------------------------------|
B|-------------------------------------| /  \
G|-------------------------------------| |  |
D|----6-6-6/5-5-5-5/3-3-3-3-3-3-3-3----| |x3|
A|----6-6-6/5-5-5-5/3-3-3-3-3-3-3-3----| \  /
E|----4-4-4/3-3-3-3/1-1-1-1-1-1-1-1----|

[Chorus]
e|---------------------------------------------|  
B|---------------------------------------------|
G|-------------------------(Optional 7th fret)-|
D|----10-10-10-10-10-10-10----8-8-8-8-8-8-8-8--| 
A|----10-10-10-10-10-10-10----8-8-8-8-8-8-8-8--|
E|----8--8--8--8--8--8--8-----6-6-6-6-6-6-6-6--|

e|-------/ First  \--------------------|
B|-------| Time   |--------------------|
G|-------\ Around /--------------------|
D|-----10----8-10----8-10-8-10-13-10---|
A|-----8-----6-8-----6-8--6-8--11-8----|
E|-------------------------------------|

e|---------------------------------------------|  
B|---------------------------------------------|
G|-------------------------(Optional 7th fret)-|
D|----10-10-10-10-10-10-10----8-8-8-8-8-8-8-8--| 
A|----10-10-10-10-10-10-10----8-8-8-8-8-8-8-8--|
E|----8--8--8--8--8--8--8-----6-6-6-6-6-6-6-6--|

e|-------/ Second \--------------------|
B|-------| Time   |--------------------|
G|-------\ Around /--------------------|
D|-----10----8-10----8-10-8-10-13-10---|
A|-----8-----6-8-----6-8--6-8--11-8----|
E|-------------------------------------|

e|-------------------------------------|
B|-------------------------------------|
G|-------------------------------------|
D|-----8-10----8-10----8-10-8-10-13-10-|
A|-----6-8-----6-8-----6-8--6-8--11-8--|
E|-------------------------------------|

[Verse]
e|-------------------------------------|
B|-------------------------------------| /  \
G|-------------------------------------| |  |
D|----6-6-6/5-5-5-5/3-3-3-3-3-3-3-3----| |x6|
A|----6-6-6/5-5-5-5/3-3-3-3-3-3-3-3----| \  /
E|----4-4-4/3-3-3-3/1-1-1-1-1-1-1-1----|

[Pre-chorus]
e|---------------|
B|---------------|
G|------10-/   \-|
D|------10-|x16|-|
A|------8--\   /-|
E|---------------|

Or this:
e|-------------------------|
B|-------------------------|
G|------10-/  \----10-/  \-|
D|------10-|x8|----10-|x8|-|
A|------8--\  /----10-\  /-|
E|-------------------------|

Or possibly (Least likely though) this:
e|-------------------------|
B|-------------------------|
G|------10-/  \----13-/  \-|
D|------10-|x8|----13-|x8|-|
A|------8--\  /----11-\  /-|
E|-------------------------|

[Verse]
e|-------------------------------------|
B|-------------------------------------| /  \
G|-------------------------------------| |  |
D|----6-6-6/5-5-5-5/3-3-3-3-3-3-3-3----| |x2|
A|----6-6-6/5-5-5-5/3-3-3-3-3-3-3-3----| \  /
E|----4-4-4/3-3-3-3/1-1-1-1-1-1-1-1----|

[Chorus]
e|---------------------------------------------|  
B|---------------------------------------------|
G|-------------------------(Optional 7th fret)-|
D|----10-10-10-10-10-10-10----8-8-8-8-8-8-8-8--| 
A|----10-10-10-10-10-10-10----8-8-8-8-8-8-8-8--|
E|----8--8--8--8--8--8--8-----6-6-6-6-6-6-6-6--|

e|-------/ First  \--------------------|
B|-------| Time   |--------------------|
G|-------\ Around /--------------------|
D|-----10----8-10----8-10-8-10-13-10---|
A|-----8-----6-8-----6-8--6-8--11-8----|
E|-------------------------------------|

e|---------------------------------------------|  
B|---------------------------------------------|
G|-------------------------(Optional 7th fret)-|
D|----10-10-10-10-10-10-10----8-8-8-8-8-8-8-8--| 
A|----10-10-10-10-10-10-10----8-8-8-8-8-8-8-8--|
E|----8--8--8--8--8--8--8-----6-6-6-6-6-6-6-6--|

e|-------/ Second \--------------------|
B|-------| Time   |--------------------|
G|-------\ Around /--------------------|
D|-----10----8-10----8-10-8-10-13-10---|
A|-----8-----6-8-----6-8--6-8--11-8----|
E|-------------------------------------|

e|-------------------------------------|
B|-------------------------------------|
G|-------------------------------------|
D|-----8-10----8-10----8-10-8-10-13-10-|
A|-----6-8-----6-8-----6-8--6-8--11-8--|
E|-------------------------------------|

[Solo]
You play this twice over the chorus (You can definitely hit the later part of the chorus if you want to)
e|-------------------------------------|
B|---13-13p11--------------------------|
G|-----------12-15(bend down)----------|
D|-------------------------------------|
A|-------------------------------------|
E|-------------------------------------|

e|-------------------------------------|
B|---13-13p11--------------------------|
G|-----------12------------------------|
D|--------------15(bend down)----------|
A|-------------------------------------|
E|-------------------------------------|

Then chorus one last time
e|---------------------------------------------|  
B|---------------------------------------------|
G|-------------------------(Optional 7th fret)-|
D|----10-10-10-10-10-10-10----8-8-8-8-8-8-8-8--| 
A|----10-10-10-10-10-10-10----8-8-8-8-8-8-8-8--|
E|----8--8--8--8--8--8--8-----6-6-6-6-6-6-6-6--|

e|-------/ First  \--------------------|
B|-------| Time   |--------------------|
G|-------\ Around /--------------------|
D|-----10----8-10----8-10-8-10-13-10---|
A|-----8-----6-8-----6-8--6-8--11-8----|
E|-------------------------------------|

e|---------------------------------------------|  
B|---------------------------------------------|
G|-------------------------(Optional 7th fret)-|
D|----10-10-10-10-10-10-10----8-8-8-8-8-8-8-8--| 
A|----10-10-10-10-10-10-10----8-8-8-8-8-8-8-8--|
E|----8--8--8--8--8--8--8-----6-6-6-6-6-6-6-6--|

e|-------/ Second \--------------------|
B|-------| Time   |--------------------|
G|-------\ Around /--------------------|
D|-----10----8-10----8-10-8-10-13-10---|
A|-----8-----6-8-----6-8--6-8--11-8----|
E|-------------------------------------|

e|-------------------------------------|
B|-------------------------------------|
G|-------------------------------------|
D|-----8-10----8-10----8-10-8-10-13-10-|
A|-----6-8-----6-8-----6-8--6-8--11-8--|
E|-------------------------------------|            
Submit corrections

↑ Back to top | Tablatures and chords for acoustic guitar and electric guitar, ukulele, drums are parodies/interpretations of the original songs. You may use it for private study, scholarship, research or language learning purposes only