Home » J » Jake Bugg »

Jake Bugg - What Doesnt Kill You Tabs

Artists:  A B C D E F G H I J K L M N O P Q R S T U V W X Y Z # 

What Doesnt Kill You Tabs

(ver. 1) Click to play this song!
Jake Bugg
 Rating:
4/5 (4 votes)
                
b - bend
r - release
w - whammy bar


Intro/Verse (repeat however many times)

    Ab  G  F
e|-----------------------|
B|-----------------------|
G|-----------------------|
D|--6--5--3--------------|
A|--6--5--3--------------|
E|--4--3--1--------------|


Bridge

    Bb  C
e|-----------|
B|-----------|
G|-----------|
D|--8--10----|
A|--8--10----|
E|--6--8-----|


Chorus

    C  Bb
e|-----------------------------------------|
B|-----------------------------------------|
G|------5----------------------------------|
D|--10--8-----10--9--10--9-10--9--10-9-10--|
A|--10--8------8--7--8---7--8--7--8--7--8--|(repeat x2 at the end of 2nd chorus)
E|--8---6----------------------------------|


Solo
Second Guitarist plays the chorus chords with the solo

e|--8----8------8-------8----8----------------|
B|--11b--11br8--11b-----11b--11br8--8---------|
G|----------------------------------10bw------|
D|--------------------------------------------|
A|--------------------------------------------|
E|--------------------------------------------|


Order

Intro x4
Verse x4
Bridge
Verse x3
Chorus x2
Verse x6
Bridge
Verse x2
Chorus x2
Solo x2
Chorus x2
            
Submit corrections

↑ Back to top | Tablatures and chords for acoustic guitar and electric guitar, ukulele, drums are parodies/interpretations of the original songs. You may use it for private study, scholarship, research or language learning purposes only