» » »

Jai Waetford - Shy Tabs

Artists:  A B C D E F G H I J K L M N O P Q R S T U V W X Y Z # 

Shy Tabs

(ver. 3) Click to play this song!
Jai Waetford
 Rating:
4.3/5 (16 votes)

 Shy  lessons Tabs too difficult? Try these video lessons and learn fast
 
                [Intro]

e|---------------------------------------------------------------|
B|----8--7------------1--1------------8--7------------1--1-------|
G|---0---0-----------2---0-----------0---0-----------2---0-------| 
D|---------------------------------------------------------------|
A|-7-----5---------0-----3---------7-----5---------0-----3-------|
E|---------------------------------------------------------------|
   1 + 2 + 3 + 4 + 1 + 2 + 3 + 4 + 1 + 2 + 3 + 4 + 1 + 2 + 3 + 4


[Verse 1]

e|---------------------------------------------------------------|
B|----8--7------------1--1------------8--7------------1--1-------|
G|---0---0-----------2---0-----------0---0-----------2---0-------| x2
D|---------------------------------------------------------------|
A|-7-----5---------0-----3---------7-----5---------0-----3-------|
E|---------------------------------------------------------------|
   1 + 2 + 3 + 4 + 1 + 2 + 3 + 4 + 1 + 2 + 3 + 4 + 1 + 2 + 3 + 4


[Chorus]

e|---------------------------------------------------------------|
B|----8--7------------1--1------------8--7------------1--1-------|
G|---0---0-----------2---0-----------0---0-----------2---0-------| x2
D|---------------------------------------------------------------|
A|-7-----5---------0-----3---------7-----5---------0-----3-------|
E|---------------------------------------------------------------|
   1 + 2 + 3 + 4 + 1 + 2 + 3 + 4 + 1 + 2 + 3 + 4 + 1 + 2 + 3 + 4


[Verse 2]

e|---------------------------------------------------------------|
B|----8--7------------1--1------------8--7------------1--1-------|
G|---0---0-----------2---0-----------0---0-----------2---0-------| x2
D|---------------------------------------------------------------|
A|-7-----5---------0-----3---------7-----5---------0-----3-------|
E|---------------------------------------------------------------|
   1 + 2 + 3 + 4 + 1 + 2 + 3 + 4 + 1 + 2 + 3 + 4 + 1 + 2 + 3 + 4


[Chorus]

e|---------------------------------------------------------------|
B|----8--7------------1--1------------8--7------------1--1-------|
G|---0---0-----------2---0-----------0---0-----------2---0-------| x2
D|---------------------------------------------------------------|
A|-7-----5---------0-----3---------7-----5---------0-----3-------|
E|---------------------------------------------------------------|
   1 + 2 + 3 + 4 + 1 + 2 + 3 + 4 + 1 + 2 + 3 + 4 + 1 + 2 + 3 + 4


[Bridge]

e|---------------------------------------------------------------|
B|----1--1------------1--3------------1--1---------1-------------|
G|---2---0-----------0---0-----------2---2---------0-------------| 
D|--2----0----------2----4----------2----3---------2-------------|
A|-0-----2---------3-----5---------0-----0---------3-------------|
E|---------------------------------------------------------------|
   1 + 2 + 3 + 4 + 1 + 2 + 3 + 4 + 1 + 2 + 3 + 4 + 1 + 2 + 3 + 4


[Interlude]

e|---------------------------------------------------------------|
B|----8--7------------1--1------------8--7------------1--1-------|
G|---0---0-----------2---0-----------0---0-----------2---0-------| 
D|---------------------------------------------------------------|
A|-7-----5---------0-----3---------7-----5---------0-----3-------|
E|---------------------------------------------------------------|
   1 + 2 + 3 + 4 + 1 + 2 + 3 + 4 + 1 + 2 + 3 + 4 + 1 + 2 + 3 + 4


[Chorus]

e|---------------------------------------------------------------|
B|----8--7------------1--1------------8--7------------1--1-------|
G|---0---0-----------2---0-----------0---0-----------2---0-------| x2
D|---------------------------------------------------------------|
A|-7-----5---------0-----3---------7-----5---------0-----3-------|
E|---------------------------------------------------------------|
   1 + 2 + 3 + 4 + 1 + 2 + 3 + 4 + 1 + 2 + 3 + 4 + 1 + 2 + 3 + 4


[Outro]

e|---------------------------------------------------------------|
B|----8--7------------1--1------------8--7------------1--1-------|
G|---0---0-----------2---0-----------0---0-----------2---0-------| 
D|---------------------------------------------------------------|
A|-7-----5---------0-----3---------7-----5---------0-----3-------|
E|---------------------------------------------------------------|
   1 + 2 + 3 + 4 + 1 + 2 + 3 + 4 + 1 + 2 + 3 + 4 + 1 + 2 + 3 + 4            
Submit corrections


        Shy  lessons Hard to play? Try these video lessons and learn fast Shy  lessons
        
↑ Back to top | Tablatures and chords for acoustic guitar and electric guitar, ukulele, drums are parodies/interpretations of the original songs. You may use it for private study, scholarship, research or language learning purposes only