» » »

Jaco Pastorius - Come On Come Over Bass

Artists:  A B C D E F G H I J K L M N O P Q R S T U V W X Y Z # 

Come On Come Over Bass

(ver. 3) Click to play this song!
Jaco Pastorius
 Rating:
4/5 (4 votes)
                "(2)
COME ON COME OVER
JACO PASTORIUS

STANDARD TUNING

Pastorius isa bass legend. This is pretty hard to play, but very rewarding and funky. 
Have a go on a fretless bass like he would have used!


INTRO (played very fast)
G|-----0-----------------------|
D|-4s5---3h4p4-----------------|
A|-------------6-3-------------|
E|-----------------6-3--2--1---|

VERSE
G|------------8-------------------------------|
D|---88-9-10---10-----------------------------|
A|--------------------------------8-9-10------|
E|-----------------------------11--------88---|
                                                 REPEAT

CHORUS

1ST SHAPE
G|-------5-X---44--------------------|
D|----77-----7----7X-----------------|
A|--5------------------------X44S5---|
E|-------------------5-5-7-7---------|

2ND SHAPE
G|--77X---4------------------|
D|------4---X77--------------|
A|----------------------44s5-|
E|--------------5-5-7-7------|

s slide in
h hammer-on
p pull-off
x deadnote

THE KEY TO THE CHORUS IS THE DEADNOTES. THEYRE HARD BUT THEYLL SOUND GREAT!
"            
Submit corrections

↑ Back to top | Tablatures and chords for acoustic guitar and electric guitar, ukulele, drums are parodies/interpretations of the original songs. You may use it for private study, scholarship, research or language learning purposes only