» » »

Jaco Pastorius - Come On Come Over Bass

Artists:  A B C D E F G H I J K L M N O P Q R S T U V W X Y Z # 

Come On Come Over Bass

(ver. 1) Click to play this song!
Jaco Pastorius
 Rating:
4/5 (4 votes)
                -------------------------------------------------------------------------------
		Jaco Pastorius - Come On, Come Over - Bass Tab
-------------------------------------------------------------------------------

Tuning: Standard
110 bpm

Intro:
|---------------------3--------------|-------------------|
|-5-5-5-5--5--5---3-5---3h4p3--------|-------------------|
|------------------------------6-3---|-------------------|
|----------------------------------6-|---3-----2---1-----|
  1   +   2   +   3   +        4   +   1  +  2  +  3  +


Verse:
|-----------|-8---------------------------------|--------------|
|--8-8-9-10-|---10------------------------------|--------------|
|-----------|-----------------------------9-10--|--------------|
|-----------|-----------------------11-11-------|-8-8----------|
   4   +      1   +   2   +   3   +    4     +    1   + 2 + 3 +


Chorus:
|-------|---------5---4-4------------------|------7-----4-----------------------|
|-------|o----7-7---7-----7--x-------------|--------x-4---x-x-7-x--------------o|
|--3-4--|o--5------------------x-----x-4-4-|-h5-5-----------------x-----x-4-4--o|
|-------|------------------------3-5-------|------------------------3-5---------|
   4 +      1 +   2   +   3    +   4   +      1   +   2   +   3   +   4   +
Bridge to Verse:
|---------5---4-4-----------------|---------8----7-7--------------------|
|o----7-7---7-----7-7-------------|---10-10---10-----10-10-7-7-8-8-9-10-|
|o--5-----------------5-5h6-x-7-7-|-8-----------------------------------|
|---------------------------------|-------------------------------------|
    1 +   2   +   3   +   4   +     1  +    2    +    3    +   4   +

Then play verse again.
In the 2nd chorus Jaco plays a few variation of the first chorus. But you can play the 
above also.
Wish you fun with this tab. It's not as difficult as it may seem. Just start by 
it slowly (e.g. at 90bpm)
            
Submit corrections

↑ Back to top | Tablatures and chords for acoustic guitar and electric guitar, ukulele, drums are parodies/interpretations of the original songs. You may use it for private study, scholarship, research or language learning purposes only