» » »

Jackyl - Down On Me Tabs

Artists:  A B C D E F G H I J K L M N O P Q R S T U V W X Y Z # 

Down On Me Tabs

(ver. 3) Click to play this song!
Jackyl
 Rating:
3.7/5 (6 votes)


 Down On Me lessons Tabs too difficult? Try these video lessons and learn fast
 
                Intro
--------------------------------------------------------------|
----5555555533333333------------------------------------------|
----5555555533333333------------------------------------------|
--------------------------------------------------------------|  X4
--------------------------------------------------------------|
--------------------------------------------------------------|
  Use finger picking for intro

------------22----------------------22------------------------|
------------33----------------------33------------------------|
----2--2----22--0--2-------2--2-----22-4b--3h4p3h4p3h432------|
----2--2--------0--2-------2--2-------------------------------|
----0--0-----------0-------0--0-------------------------------|
------3--3-------------------3--3-----------------------------|


------------22--------------5---------------------------------|
------------33------------3--4ph------------------------------|
------2-----22--0--2----34------------------------------------|
------2---------0--2------------------------------------------|
------0------------0------------------------------------------|
-----3--3-----------------------------------------------------|


solo
--------------------------------------------------------------|
---------I-DONT-KNOW-THE-SOLO---------------------------------|
--------------------------------------------------------------|
--------------------------------------------------------------|
--------------------------------------------------------------|
--------------------------------------------------------------|


At the end of the solo play this
--------------------------------------------------------------|
--------------------------------------------------------------|
--44444--66666--77777--666------44444--66666--77777--77777----|
--44444--66666--77777--666------44444--66666--77777--77777----|
--22222--44444--55555--444-454--22222--44444--55555--55555----|
-----------------------------------------------------------3b-|


Play this after jesse sings alone with the drums
-22-----------------22------------------22---------------------|
-33-------palm-mute-33--------palm-mute-33-------palm-mute-----|
-22--0-2---2222222--22--0-2----2222222--22-0-2----2222222------|
-----0-2---2222222------0-2----2222222-----0-2----2222222------|
-------0---0000000--------0----0000000-------0----0000000------|
---------------------------------------------------------------|

-22------------------22----------------------------------------|
-33--------palm-mute-33----------------------------------------|
-22--0-2----2222222--22--0-2----2--0---------------------------|
-----0-2----2222222------0-2----2--0---------------------------|
-------0----0000000--------0----0------------------------------|
---------------------------------------------------------------|


outro
---------------------------------------------------------------|
---5555555533333333--X6----------------------------------------|
---5555555533333333----------------5~~~~~~~--------------------|
-----------------------------------5~~~~~~~--------------------|
-----------------------------------3~~~~~~~--------------------|
---------------------------------------------------------------|

take the main riff and play that most of the way through
                        Tabed by MayerGibson06
            
Submit corrections



        Down On Me lessons Hard to play? Try these video lessons and learn fast Down On Me lessons
        
↑ Back to top | Tablatures and chords for acoustic guitar and electric guitar, ukulele, drums are parodies/interpretations of the original songs. You may use it for private study, scholarship, research or language learning purposes only