Home » J » Jack Wagner »

Jack Wagner - All I Need Tabs

Artists:  A B C D E F G H I J K L M N O P Q R S T U V W X Y Z # 

All I Need Tabs

(ver. 2) Click to play this song!
Jack Wagner
     A          |  F#m      |  D     | A     | E

-------------------------------2--0----------------------------------------------------|
----2-----0-2-----5p2---3-5------------2--0--------------------------------------------|
------2---------------2------------------------2--4------------------------------------|
--------2------------------------------0--2--------------------------------------------|
----0--------------------------2--4----------------------------------------------------|
------------------2----------------------------2--4------------------------------------|


OR


     A          |  F#m      |  D  | A  | E

-------------------------------2-0----------------------------------------------------|
----2-----0-2-----5-2---3-5----3----2-0-----------------------------------------------|
------2---------------2-------------2----2-4------------------------------------------|
--------2----------------------0------------------------------------------------------|
----0-------------------------------0-------------------------------------------------|
------------------2----------------------0--------------------------------------------|
            
Submit corrections

↑ Back to top | Tablatures and chords for acoustic guitar and electric guitar, ukulele, drums are parodies/interpretations of the original songs. You may use it for private study, scholarship, research or language learning purposes only