Home » J » Jackson 5 »

Jackson 5 - Shake Your Body Bass

Artists:  A B C D E F G H I J K L M N O P Q R S T U V W X Y Z # 

Shake Your Body Bass

(ver. 3) Click to play this song!
Jackson 5
Start with a G slide on the E string and repeat...

G|------------------------------------|
D|--------55----5-3-2-----------------|
A|--------------------5---------------|
E|----3-------------------------------|



G|------------------------------------|
D|--------55----5-33-2----------------|
A|---------------------5--------------|
E|----3-------------------------------|            
Submit corrections

↑ Back to top | Tablatures and chords for acoustic guitar and electric guitar, ukulele, drums are parodies/interpretations of the original songs. You may use it for private study, scholarship, research or language learning purposes only