Home » J » Jackson 5 »

Jackson 5 - Dont Blame It On The Boogie Bass

Artists:  A B C D E F G H I J K L M N O P Q R S T U V W X Y Z # 

Dont Blame It On The Boogie Bass

(ver. 2) Click to play this song!
Jackson 5

Jackson 5
Don't Blame It On The Boogie

Standard Tuning
I'm sure the layout of the parts is right if not comment 
so i can change it, thanks.


  Intro
G|----------------------------|
D|----------------x-----------|
A|-66----33----------------3--| x3
E|----33----33-11x-x3-4-6-6-6-|

G|--------------------------|
D|----------------x---------|
A|-66----33---------------2-| x1
E|----33----33-11x-x3-4-6---|


  Verse
G|-------------------------------|
D|-------------------------------|
A|-3---3-x4-6---6---3---34-6---6-|
E|----------------6---------44---|

G|-----------------------------------|
D|-----------------------------------|
A|-3--x33-4-5-66-44-33---------------|
E|---------------------66-4-43456-66-|


  Chorus
G|--8----8--7--6----6----8--6--6--7--8-----8h10p8---|
D|-------------------------------------8-10------10-|
A|-6-6-x6-x5-x4-4-x4-x4/6--4-x4-x5-x6-6-------------|
E|--------------------------------------------------|

G|--8----8--7--6----6----8--6--6--7--8---------8h10/12\108---|
D|---------------------------------------6h8/10-----------10-|
A|-6-6-x6-x5-x4-4-x4-x4/6--4-x4-x5-x6-6h8--------------------|
E|-----------------------------------------------------------|
  
  Verse
G|-------------------------------|
D|-------------------------------|
A|-3---3-x4-6---6---3---34-6---6-|
E|----------------6---------44---|

G|-----------------------------------|
D|-----------------------------------|
A|-3--x33-4-5-66-44-33---------------|
E|---------------------66-4-43456-66-|


  Chorus
G|--8----8--7--6----6----8--6--6--7--8-----8h10p8---|
D|-------------------------------------8/10------10-|
A|-6-6-x6-x5-x4-4-x4-x4/6--4-x4-x5-x6-6-------------|
E|--------------------------------------------------|

G|--8----8--7--6----6----8--6--6--7--8-----8h10p8---|
D|-------------------------------------8-10------10-|
A|-6-6-x6-x5-x4-4-x4-x4/6--4-x4-x5-x6-6-------------|
E|--------------------------------------------------|


Break Between Chorus 2 & 3
G|-----------------------------|
D|-----------------------------|
A|-6-----x3---x------11--------|
E|-------------1--1h3----------|

G|--88----55-------------------|
D|--------------33-------------|
A|-6-----3-----------11--------|
E|-------------1--1h3----------|

G|--------55-------------------|
D|-----------------------------|
A|-6----x3---x-----11----------|
E|------------1----------------|

G|-----------------------------|
D|-----------------------------|
A|-6----x3---x-----11----------|
E|------------1----------------|


  Chorus
G|--8----8--7--6----6----8--6--6--7--8-----8h10p8---|
D|-------------------------------------8/10------10-|
A|-6-6-x6-x5-x4-4-x4-x4/6--4-x4-x5-x6-6-------------|
E|--------------------------------------------------|

G|--8----8--7--6----6----8--6--6--7--8---------8h10/12\108---|
D|---------------------------------------6h8/10-----------10-|
A|-6-6-x6-x5-x4-4-x4-x4/6--4-x4-x5-x6-6h8--------------------|
E|-----------------------------------------------------------|
 
 
  Intro Riff After Third Chorus
G|-8h10-----------------------------8h10------------------|
D|-----------------x-----------------------------x--------|
A|-----6h8--33-------------------6h8------33------------2-|
E|--------33--3311x-x-3-4-6-6h8p6-------33--3311x-x3-4-6--|


  Verse
G|-------------------------------|
D|-------------------------------|
A|-3---3-x4-6---6---3---34-6---6-|
E|----------------6---------44---|

G|-----------------------------------|
D|-----------------------------------|
A|-3--x33-4-5-66-44-33---------------|
E|---------------------66-4-43456-66-|


  Chorus
G|--8----8--7--6----6----8--6--6--7--8-----8h10p8---|
D|-------------------------------------8/10------10-|
A|-6-6-x6-x5-x4-4-x4-x4/6--4-x4-x5-x6-6-------------|
E|--------------------------------------------------|

G|--8----8--7--6----6----8--6--6--7--8-----8h10p8---|
D|-------------------------------------8-10------10-|
A|-6-6-x6-x5-x4-4-x4-x4/6--4-x4-x5-x6-6-------------|
E|--------------------------------------------------|

  
G|-----------------------------|
D|-----------------------------|
A|-66------44------44------4/6-|
E|-----------------------------|

G|------8------6-6----------------810-10/12-8---|
D|----------------------------8/10-----------10-|
A|-66--x---44-x-x--44------4/6------------------|
E|----------------------------------------------|


  Chorus
G|--8----8--7--6----6----8--6--6--7--8-----8h10p8---|
D|-------------------------------------8-10------10-|
A|-6-6-x6-x5-x4-4-x4-x4/6--4-x4-x5-x6-6-------------|
E|--------------------------------------------------|

G|--8----8--7--6----6----8--6--6--7--8----8h10p8---|
D|-------------------------------------8/10-----10-|
A|-6-6-x6-x5-x4-4-x4-x4/6--4-x4-x5-x6-6------------|
E|-------------------------------------------------|
            
Submit corrections

↑ Back to top | Tablatures and chords for acoustic guitar and electric guitar, ukulele, drums are parodies/interpretations of the original songs. You may use it for private study, scholarship, research or language learning purposes only