Home » J » Jackson 5 »

Jackson 5 - Enjoy Yourself Chords

Artists:  A B C D E F G H I J K L M N O P Q R S T U V W X Y Z # 

Enjoy Yourself Chords

(ver. 2) Click to play this song!
Jackson 5
[Intro] (played Staccato)
e|---------------------------------------------------------------------------|
B|-----5---5---5---5-5----------5----5---5---6--6----------------------------|
G|-----5---5---5---5-5----------5----5---5---5--5----------------------------|
D|3/5----5---5---5----------3/5---5----5-----7--7----------------------------|
A|---------------------------------------------------------------------------|
E|---------------------------------------------------------------------------|

e|---------------------------------------------------------------------------|
B|-----5---5---5---5-5----------5----5---5---6--6----------------------------|
G|-----5---5---5---5-5----------5----5---5---5--5----------------------------|
D|3/5----5---5---5----------3/5---5----5-----7--7----------------------------|
A|---------------------------------------------------------------------------|
E|---------------------------------------------------------------------------|

[Chorus]
C
Enjoy yourself
C
Enjoy yourself
C                     F
Enjoy yourself with me
C
Enjoy yourself
C
Enjoy yourself
C                     F
Enjoy yourself with me

[Pre-Chorus]
C                         C  F
You better enjoy yourself
C                         C  F
You better enjoy yourself

[Verse]
C
You sittin' over there
C
Starin' into space
C
While people are dancin'
C
Dancin' all over the place.

F
You shouldn't worry about 
Dm
things you can't control,
F
Come on girl while the night is young,
             E F F# G        E F F# G
Why don'tcha let yourself let yourself go!  Woo!

[Chorus]

[Verse]
C
Let's have some fun
C                                F
Let's have a good time you and me
C
Sittin' there with your mouth poked out
C                         E E F G
Just sweet as you can be.

F
Why don'tcha live, 
Dm
live the life ya got,
F
Come on girl let's spin it,
          E F F# G        E F F# G
While the music's runnin' hot... (whoo!)

[Chorus]

[Bridge]
Am
Baby girl I've been watchin you...
D
I want what I'm waitin' for,
F
For you and I to get together,
G
We can tear the house down
G
Or we can tear the house down
G
Or we can tear the whole house down..whoo!

[Chorus]

[Pre-Chorus]
C                         C  F
You better enjoy yourself
C                         C  F
You gotta enjoy yourself  Say it again!

[Outro]
C                                                                 
Enjoy Yourself Enjoy Yourself  You've Got to Get Down  Get on Down
C                                                                 
Enjoy Yourself Enjoy Yourself  You've Got to Get Down  Get on Down
C                                                                 
Enjoy Yourself Enjoy Yourself  You've Got to Get Down  Just Get on Down
C                                                                 
Enjoy Yourself Enjoy Yourself  You've Got to Get Down  Just Get on Down

Opening Riff

Dm         Dm7        F          Dm7addC
Cmon Cmon  Cmon Cmon  Cmon Cmon  Cmon 

You can do it You can do it 
                            E F F# G  E F F# G
You can do it You can do it
C                       F
Ahh eh heh  Get on down
C             F
Ooo Ooo Ooo

[Outro]            
Submit corrections

↑ Back to top | Tablatures and chords for acoustic guitar and electric guitar, ukulele, drums are parodies/interpretations of the original songs. You may use it for private study, scholarship, research or language learning purposes only