Home » J » Jackson 5 »

Jackson 5 - Blame It On The Boogie Bass

Artists:  A B C D E F G H I J K L M N O P Q R S T U V W X Y Z # 

Blame It On The Boogie Bass

(ver. 3) Click to play this song!
Jackson 5
Intro
                                         x3
|------------------|------------------------|-----------------|--------------------|
|o-1-1-------------|----------------------o-|-1-1-------------|--------------------|
|o---------3-3-----|--------------0-1h3p1-o-|---------3-3-----|--------------0-2---|
|------3-3-----3-3-|-1-1----x-3-4-----------|-----3-3-----3-3-|-1-1----x-3-4-------|
   E E E E E E E E   E E E. S S E E S S S     E E E E E E E E   E E E. S S E E E. 

Verse 1

|-------------------|-------------------|-------------------|-------------------|
|-------------------|-------------------|-------------------|-------------------|
|-3------3-3------5-|-6------6-6------5-|-3------3-3--------|--------6----------|
|------3\-------3\--|------6\-------6\--|------3\-------3\--|-4--4--------------|
  S E. E.S S E. E.S   S E. E.S S E. E.S   S E. E.S S E. Q     E. E S E H

|-------------------|-----------------|-----------------|------------------|
|-------------------|-----------------|-----------------|--------8---------|
|-3------3-3----3-5-|-6-6-4-4-3-3-1-1-|-----------------|----------------5-|
|------3\-----------|-----------------|-4----4\4-4------|-6--6-----6-6-6---|
  S E. E.S S Q  S E   E E E E E E E E   S E. E.S S Q. S   E. E S Q E S S E

Chorus

|------8---8-----8---|-----6-----6---8-|---------6---6---6-|--------------8h10p8----|
|o-------------------|-----------------|-------------------|---------8h10-------h8-o|
|o-6-----------6---5-|-4-------4---6---|-4---4-----4---4---|-6-6-6-----------------o|
|--------------------|-----------------|-------------------|------------------------|
   Q   E S E S E E E   Q   E E.S E E E   Q   E S E S E E E   E.E.E S S E  S T  S E

Verse 2

|-------------------|------8-8----8-----|-------------------|-------------------|
|-------------------|-------------------|-------------------|-------------------|
|-3------3-3----3-5-|-6---------------5-|-3------3-3--------|--------6----------|
|------3\-----------|-------------------|------3\-------3\--|-4--4--------------|
  S E. E.S S Q  S E   S E. E.E E. E S S   S E. E.S S E. Q     E. E S E H

|-------------------|-----------------|-----------------|------------------|
|-------------------|-----------------|-----------------|--------8---------|
|-3------3-3----3-5-|-6-6-4-4-3-3-1-1-|-----------------|----------------5-|
|------3\-----------|-----------------|-4----4\4-4----5-|-6--6-----6-6-6---|
  S E. E.S S Q  S E   E E E E E E E E   S E. E.S S Q. S   E. E S Q E S S E

Repeat Chorus

Bridge
|-----------------|-----------------|-------8-------5-|-----------------|
|-----------------|-----------------|-----------------|-----------------|
|-6----3-3--------|----------1--1---|-6-6-6---3-3-3---|--------0--1--1--|
|---------------1-|-1---------------|-----------------|-1-1-3-----------|
  E E. S Q   E. S   Q   Q  S E. Q     S E E.E S E E.E   S E E. E. E. E

|-------8-------5-|-----------------|-------8-------5-|-----------3--3--|
|-----------------|-----------------|-----------------|-----------------|
|-6-6-6---3-3-3---|--------0--1--1--|-6-6-6---3-3-3---|--------0--------|
|-----------------|-1-1-3-----------|-----------------|-1-1-3-----------|
  S E E.E S E E.E   S E E. E. E. E    S E E.E S E E.E   S E E. E. E. E

Repeat Chorus

Main Riff
                                         
|-----------------|----------------------|-----------------|--------------------|
|-1-1-------------|----------------------|-1-1-------------|--------------------|
|---------3-3-----|--------------0-1h3p1-|---------3-3-----|--------------0-2---|
|-----3-3-----3-3-|-1-1----x-3-4---------|-----3-3-----3-3-|-1-1----x-3-4-------|
   E E E E E E E E   E E E. S S E E S S S  E E E E E E E E   E E E. S S E E E. 

Verse 3

|-------------------|-------------------|-------------------|-------------------|
|-------------------|-------------------|-------------------|-------------------|
|-3------3-3------5-|-6------6-6------5-|-3------3-3--------|--------6----------|
|------3\-------3\--|------6\-------6\--|------3\-------3\--|-4--4--------------|
  S E. E.S S E. E.S   S E. E.S S E. E.S   S E. E.S S E. Q     E. E S E H

|-------------------|-----------------|-----------------|------------------|
|-------------------|-----------------|-----------------|--------8---------|
|-3------3-3----3-5-|-6-6-4-4-3-3-1-1-|-----------------|----------------5-|
|------3\-----------|-----------------|-4----4\4-4----5-|-6--6-----6-6-6---|
  S E. E.S S Q  S E   E E E E E E E E   S E. E.S S Q. S   E. E S Q E S S E

Repeat Chorus

Interlude

|--------|--------8----7---|-----------6---6-|---------|--------8-10-10-12-8------|
|-4 Bars-|-----------------|-----------------|---------|---8-10--------------10-8-|
|--Rest--|-----------------|-----------------|---------|--------------------------|
|--------|-----------------|-----------------|---------|--------------------------|
           Q.   S E E. E E   H       E E E E   W         S S E  E E  S  S  E E  E

Repeat Chorus To Fade
            
Submit corrections

↑ Back to top | Tablatures and chords for acoustic guitar and electric guitar, ukulele, drums are parodies/interpretations of the original songs. You may use it for private study, scholarship, research or language learning purposes only