» » »

Isla Era - Barkada Ko Tabs

Artists:  A B C D E F G H I J K L M N O P Q R S T U V W X Y Z # 

Barkada Ko Tabs

(ver. 3) Click to play this song!
Isla Era
 Rating:
4/5 (4 votes)

 Barkada Ko lessons Tabs too difficult? Try these video lessons and learn fast
 
                barkada ko



legend : s - slide
         x - palm mute/dead string

Intro :
e~ ----5----7s10-7-5----5-5----5----------------|
B~ ---7-7-----------7-8-------7-7--7s8-7-5-5----|
G~ --7---7-------------------7---7--------7-7-7-| (repeat this 2x)
D~ -------7-----------------------7-------------|
A~ -5-----------------------5-------------------|
E~ ---------------------------------------------|

e~ -3s5-5-|
B~ -3s7-7-|
G~ -5s7-7-|
D~ - -----| (repeat 3x)
A~ -------|
E~ -------|

Verse :
e~ -x5x5x2x2x3x3x5x5x-|
B~ -x7x7x3x3x3x4x5x5x-|
G~ -x7x7x4x4x4x4x6x6x-|
D~ -------------------|
A~ -------------------|
E~ -------------------|

Chorus :
e~ ---3---5-------2--|
B~ ----3---5-------3-|
G~ -----------7------|
D~ ----------7-7-4---| (repeat 2x)
A~ --5---7--5---2----|
E~ -3---5------------|

e~ ---3---3---5---5--|
B~ ----3---3---5---5-|
G~ ------------------|
D~ ------------------|
A~ --5---5---7---7---|
E~ -3---3---5---5----|

Intro :
e~ ----5----7s10-7-5----5-5----5----------------|
B~ ---7-7-----------7-8-------7-7--7s8-7-5-5----|
G~ --7---7-------------------7---7--------7-7-7-| (repeat this 2x)
D~ -------7-----------------------7-------------|
A~ -5-----------------------5-------------------|
E~ ---------------------------------------------|

e~ -3s5-5-|
B~ -3s7-7-|
G~ -5s7-7-|
D~ - -----| (repeat 3x)
A~ -------|
E~ -------|

Verse :
e~ -x5x5x2x2x3x3x5x5x-|
B~ -x7x7x3x3x3x4x5x5x-|
G~ -x7x7x4x4x4x4x6x6x-|
D~ -------------------|
A~ -------------------|
E~ -------------------|

Chorus :
e~ ---3---5-------2--|
B~ ----3---5-------3-|
G~ -----------7------|
D~ ----------7-7-4---| (repeat 2x)
A~ --5---7--5---2----|
E~ -3---5------------|

e~ ---3---3---5---5--|
B~ ----3---3---5---5-|
G~ ------------------|
D~ ------------------|
A~ --5---5---7---7---|
E~ -3---3---5---5----|

Bridge :

e~ -x2x2x2x2x2x2x2x2x3x3x3x3x5x5x5x5-|
B~ -x3x3x3x3x2x2x2x2x3x3x3x3x5x5x5x5-|
G~ -x4x4x4x4x2x2x2x2x4x4x4x4x6x6x6x6-|
D~ ----------------------------------|
A~ ----------------------------------|
E~ ----------------------------------|

Chorus :
e~ ---3---5-------2--|
B~ ----3---5-------3-|
G~ -----------7------|
D~ ----------7-7-4---| (repeat 2x)
A~ --5---7--5---2----|
E~ -3---5------------|

e~ ---3---3---5---5--|
B~ ----3---3---5---5-|
G~ ------------------|
D~ ------------------|
A~ --5---5---7---7---|
E~ -3---3---5---5----|

Intro :
e~ ----5----7s10-7-5----5-5----5----------------|
B~ ---7-7-----------7-8-------7-7--7s8-7-5-5----|
G~ --7---7-------------------7---7--------7-7-7-| (repeat this 2x)
D~ -------7-----------------------7-------------|
A~ -5-----------------------5-------------------|
E~ ---------------------------------------------|

Outro :

e~ -7s10-10-10-10t12-12-12-12r10-10-|
B~ -7s10-10-10-10t12-12-12-12r10-10-|
G~ -8s10-11-11-------------------11-|
D~ ---------------------------------|
A~ ---------------------------------|
E~ ---------------------------------|

kung may mali, just update me :)
            
Submit corrections


        Barkada Ko lessons Hard to play? Try these video lessons and learn fast Barkada Ko lessons
        
↑ Back to top | Tablatures and chords for acoustic guitar and electric guitar, ukulele, drums are parodies/interpretations of the original songs. You may use it for private study, scholarship, research or language learning purposes only