Home » I » Isla Era »

Isla Era - Barkada Ko Bass

Artists:  A B C D E F G H I J K L M N O P Q R S T U V W X Y Z # 

Barkada Ko Bass

(ver. 1) Click to play this song!
Isla Era
 Rating:
4/5 (4 votes)
                Artist/Band:Isla Era


Intro:
G|--------------------------------------|
D|--------------------------------------|
A|---5-5-5-5-5-5/-12-12h14-12-----------|
E|--------------------------------------|

G|--------------------------------------|
D|--------------------------------------|
A|---5-5-5-5-5-5/-12-12\----------------|
E|--------------------------------------|

G|--------------------------------------|
D|--------------------------------------|
A|---5-5-5-5-5-5/-12-12h14-12-----------|
E|--------------------------------------|

G|------------------------------------------|
D|------------------------------------------|
A|---5-5-5-5-5-5-5/slide slow-15\-----------|
E|------------------------------------------|

Verse 1:
G|--------------------------------------|
D|-------------4----------------4-------|
A|---5-5--2-2----------------7----------|\
E|----------------3-3---5-5-------------| \
                                          (repeat 2x)
G|----------------------------------------| /
D|-------------4--------------------------|
A|---5-5--2-2---------------7/9-----------|
E|----------------3-3---5-5---------------|

Interlude:
G|--------------------------------------|
D|--------------------------------------|
A|---5-5-5-5-5-5/-12-12h14-12-----------|
E|--------------------------------------|

G|--------------------------------------|
D|--------------------------------------|
A|---5-5-5-5-5-5/-12-12\----------------|
E|--------------------------------------|

Verse 2:
G|--------------------------------------|
D|-------------4----------------4-------|
A|---5-5--2-2----------------7----------|\
E|----------------3-3---5-5-------------| \
                                          (repeat 2x)
G|----------------------------------------| /
D|-------------4--------------------------|
A|---5-5--2-2---------------7/9-----------|
E|----------------3-3---5-5---------------|

Chorus:
G|-------------------------------2------|
D|--------------------4-7------2--------|(repeat 3x)
A|------2-5----4-7--5------2-0----------|
E|---3-------5--------------------------|

G|--------------------------2-----------|
D|------------------------2-------------|
A|------2-5-7-5-3-2---2-0---------------|
E|---3--------------5-------------------|

Interlude:
G|--------------------------------------|
D|--------------------------------------|
A|---5-5-5-5-5-5/-12-12h14-12-----------|
E|--------------------------------------|

G|--------------------------------------|
D|--------------------------------------|
A|---5-5-5-5-5-5/slide slow-15\---------|
E|--------------------------------------|

Verse 3:
G|--------------------------------------|
D|-------------4----------------4-------|
A|---5-5--2-2----------------7----------|
E|----------------3-3---5-5-------------|

G|--------------------------------------|
D|-------------4----------------4-------|
A|---5-5--2-2----------------7----------|
E|----------------3-3---5-5-------------|

G|--------------------------------------|
D|-------------4----------------4-------|
A|---5-5--2-2----------------7----------|
E|----------------3-3---5-5-------------|

G|--------------------------------------|
D|-------------4------------------------|
A|---5-5--2-2---------------7/9---------|
E|----------------3-3---5-5-------------|

(chorus)

Bridge:
G|---------------------------------------------------|
D|-----------0---------------------------------------|
A|-2-2-2-2-4-----------4-----------------------4-6---|
E|------------2-2-2-0----2-3-3-3-3--5-5-5-5--7-------|

G|-----------------------------------------------------------|
D|-----------0-----------------------------------------------|
A|-2-2-2-2-4-----------4--------------------------------15\--|
E|-------------2-2-2-0---2-3-3-3-3-55555555/121212121212-----|

(chorus 2x)

Outro:
G|--------------------------------------|
D|--------------------------------------|
A|---5-5-5-5-5-5/-12-12h14-12-----------|
E|--------------------------------------|

G|--------------------------------------|
D|--------------------------------------|
A|---5-5-5-5-5-5/-12-12\----------------|
E|--------------------------------------|

G|--------------------------------------|
D|--------------------------------------|
A|---5-5-5-5-5-5/-12-12h14-12-----------|
E|--------------------------------------|

G|--------------------------------------|
D|--------------------------------------|
A|---5-5-5-5-5-5/slide slow-15\-5~------|
E|--------------------------------------|

Im not sure of this tabs but I hope you enjoy this even if the other part of this tab is
not correct. I just made this because until now no one already submit the bass tabs of
this song only me. But if you have or you can make another one that you think it is 100% 
correct please submit it right away in this site. Thank you.
            
Submit corrections

↑ Back to top | Tablatures and chords for acoustic guitar and electric guitar, ukulele, drums are parodies/interpretations of the original songs. You may use it for private study, scholarship, research or language learning purposes only