» » »

Isis - Not In Rivers, But In Drops Tabs

Artists:  A B C D E F G H I J K L M N O P Q R S T U V W X Y Z # 

Not In Rivers, But In Drops Tabs

(ver. 2) Click to play this song!
Isis
 Rating:
4/5 (4 votes)


 Not In Rivers, But In Drops lessons Tabs too difficult? Try these video lessons and learn fast
 
                Isis

Not in rivers, but in drops, track 2 from "In the absence of truth"

This song has 3 Guitarists playing on it (and lots of reverb too), so please understand 
is an attempt to
tab it out for one guitar (with additional parts still). With "shortcuts" in 
transcription= x times.
Listen to the cd and it will be all very easy except there's many parts.
time listening to it.
I believe it has 90% of all the parts (the ones that are consistant and that are not too easy)
and it is tabbed for Drop B.
Enjoy.

Drop B = B F#B E G#C#

Bass intro

then guitar slightly muted with OD or light Disto:
-------------------------------------------------------|
-10------------------------10-1010---------------8-88--|
--9--x-times---------9-9999----------------9-9999------|
--------------7-7777---------------7-7777--------------|
-------------------------------------------------------|
-------------------------------------------------------|

0:32                 0:41                       0:49
1: Listen to the cd    2: this chord does it.  3:
for strumming.
------------------------------5--------------------------17-17^------------------------|
-6---------/8--6--8--10-------8------------------10------17-17^--15--20----------------|
-5---------/7--5--7---9-------5----------------------------------14--19--Back to 1...--|
-3---------/5--3--5---7-------7---------------2-----7----------------------------------|
-3---------/5--3--5---7-------5---------------0-let ring-0-----------------------------|
-3-x-times-/5--3--5---7-------0--------------------------------------------------------|

Variation for part 1 only  (Guit 2) even strumming
listen to the cd for chord changes:
-----------------------------------------------------------|
-10---------6---------3---------6/8----------10------------|
--9---------5---------2---------5/7-----------9---x-times--|
--7---------3---------0---------3/5--x-times--7------------|
--8-x-times-3-x-times-X-x-times-3/5-----------7------------|
----------------------3------------------------------------|


1:15 that chord again does it:          the the palm mute part you can figure out:
--5-------------------------------------------------|
--8-------------------------------------------------|
--5-------------------------------------------------|
--7-------------------------------------------------|
--5-x-times----------------------------33333.....---|
--0------------------------------------33333......--|

1:49  Bridge   ///=slide down
--17/////--------------------------17////-------------------------------|
--15/////--15////--18////--15////--15////--15////--18////--20---15////--|
-----------14////--17////--14////----------14////--17////--19---14////--|
------------------------------------------------------------------------|
------------------------------------------------------------------------|
------------------------------------------------------------------------|

with wah for example (or tremolo or phaser)
----------------------------------------------------------------------------------------|
-13-13h15------------------------------13-13h15--------------------------12-12----------|
----------14-12----------12---------------------14-12-----------12------------14-12-11--|
----------------14-12-14----14-12---15-----------------14-12-14----14-12----------------|
----------------------------------------------------------------------------------------|
----------------------------------------------------------------------------------------|


------------------------------------------------------------------------------------|
------------------------------------------------------------------------------------|
------------------------------------------------------------------------------------|
--141414-12-1414--------------------------------------------------------------------|
--141414-12-1414--repeat this part--------------------------------------------------|
------------------------------------------------------------------------------------|

2:33 Bar Chords...no high pitch phrases tabbed here but those are arpeggios on three strings....
-------------------------------------------------------3----3------------------|
-------------------------------------------------------5----5------------------|
-4-4-----4-4------6------------------------------------4----4------------------|
-2-2--0--2-2-0000-4-0---------55---55---55---55-4-----22-0-22-00-4-0-----------|
-2-2--0--2-2-0000-4-0---------33-0-33-0-33-0-33-2-54--22-0-22-00-4-0-----------|
-2-2--0--2-2-0000-4-0-4-times---------------------54--22-0-22-00-4-0--4-times--|

3:16
---------------------|
---------------------|
---------------------|
-5--------------777--|
-3----22-times--555--|
---------------------|

3:22
-----------------------------|
-----------------------------|
----------------7/9----------|
-2r0---22r0-----5/7r0--22r0--|
-2r0---22r0-----5/7r0--22r0--|
-2r0---22r0-----5/7r0--22r0--|
       ^^^6 times      ^^^^7 times

3:47 Chords
-3-3-3-3-3/2-2/0-0-0-0-0-0/3-3-----------------------------------------------|
-3-3-3-3-3/2-2/0-0-0-0-0-0/3-3-----------------------------------------------|
-5-5-5-5-5/4-4/2-2-2-2-2-2/5-5-----------------------------------------------|
-5-5-5-5-5/4-4/2-2-2-2-2-2/5-5-----------------------------------------------|
-3-3-3-3-3/2-2/0-0-0-0-0-0/3-3-----------------------------------------------|
-----------------------------------------------------------------------------|

Play twice:
---------------------------------------------------------------------------------|
---------------------------------------------------------------------------------|
-9----------------99-10/1313-----------------------------------------------------|
---99-10-99-12-99----------------------------------------------------------------|
---------------------------------------------------------------------------------|
---------------------------------------------------------------------------------|

-------------------------------------------------------------------------------|
-------------------------------------------------------------------------------|
-141414-161616-171717-212121-1919-1717-161616-141414-191919-171717-1616-1010---|
-------------------------------------------------------------------------------|
-------------------------------------------------------------------------------|
-------------------------------------------------------------------------------|
-------------------------------------------------------------------------------|

Play twice:
---------------------------------------------------------------------------------|
------------10--------------------10---------------------------------------------|
-9-------------12-9----9-------------9-10/131313---------------------------------|
---99-10-99---------12---99-10-99------------------------------------------------|
---------------------------------------------------------------------------------|
---------------------------------------------------------------------------------|

-------------------------------------------------------------------------------|
-------------------------------------------------------------------------------|
-141414-161616-171717-212121-1919-1717-161616-141414-191919-171717-1616-1010---|
-------------------------------------------------------------------------------|
-------------------------------------------------------------------------------|
-------------------------------------------------------------------------------|
-------------------------------------------------------------------------------|

-------------------------------------------------------------------------------------|
------------10--------------------10-------------------------------------------------|
-9-------------12-9----9-------------9-10-131313-------------------------------------|
---99-10-99---------12---99-10-99----------------------------------------------------|
-------------------------------------------------------------------------------------|
-------------------------------------------------------------------------------------|

-------------------------------------------------------------------------------|
-------------------------------------------------------------------------------|
-141414-161616-171717-212121-1919-1717-161616-141414-191919-171717-1616-1010---|
-------------------------------------------------------------------------------|
-------------------------------------------------------------------------------|
-------------------------------------------------------------------------------|
-------------------------------------------------------------------------------|

4:42 listen to the record for palm muting / release:
-----------------------------------------------------------------------------------|
-----------------------------------------------------------------------------------|
-----------------------------------------------------------------------------------|
-----------------------------------------------------------------------------------|
-2r0-22r0-22r0-22r0-22r0-22r0-22r0-570--22r0-22r0-22r0-22r0-22r0-22r0-22r0-575-----|
-2r0-22r0-22r0-22r0-22r0-22r0-22r0-570--22r0-22r0-22r0-22r0-22r0-22r0-22r0-575-----|


------------------------------------------------------------------------------------|
------------------------------------------------------------------------------------|
------------------------------------------------------------------------------------|
------------------------------------------------------------------------------------|
-22r0-22r0-22r0-22r0-22r0-22r0-22r0-570--22r0-22r0-22r0-22r0-22r0-22r0-22r0-7777----|
-22r0-22r0-22r0-22r0-22r0-22r0-22r0-570--22r0-22r0-22r0-22r0-22r0-22r0-22r0-7777----|
                                         ^ releasing palm mute progressively^^^^^^^^^
5:03 not clear but it'll do fine:   Play twice
------------------------------------------------------------------------------------|
-8-----8-10-----8(-)---8--------10---8----------------------------------------------|
-9--11------11--9--------11-9-11--11---9-11-9-11-9----------------------------------|
------------------------------------------------------------------------------------|
------------------------------------------------------------------------------------|
------------------------------------------------------------------------------------|


--------(0)-----------------0-------------------0----------------------------------------------|
-(8)///-12-let ring--1212^--8--10----------10///12---or play other guitar-8r7-88r7-88r7-88888--|
-(5)///--9------------9-9^--9--7-let ring---7///9-------------------------9r7-99r7-99r7-99999--|
--------------------------------------------------------------------------9r7-99r7-99r7-99999--|
-----------------------------------------------------------------------------------------------|
-----------------------------------------------------------------------------------------------|

5:26   Play 4 Times
-----------------------|
-----------------------|
-----------------------|
-2r0-22r0-22r0-222222--|
-2r0-22r0-22r0-222222--|
-2r0-22r0-22r0-222222--|
     ^    ^    ^^^^^^    * ^= Palm mute

5:38
-----------------------------------------------------------------------------------------------|
-----------------------------------------------------------------------------------------------|
-4---77---99---4-444---4---77---1212----4-444---4---77---99---4-444---4---1212---1111--999999--|
-2r0-55r0-77r0-2-222---2r0-55r0-1010r0--2-222---2r0-55r0-77r0-2-222---2r0-1010r0-9-9r0-777777--|
-2r0-55r0-77r0-2-222---2r0-55r0-1010r0--2-222---2r0-55r0-77r0-2-222---2r0-1010r0-9-9r0-777777--|
-2r0-55r0-77r0-2-222---2r0-55r0-1010r0--2-222---2r0-55r0-77r0-2-222---2r0-1010r0-9-9r0-777777--|

5:49 Play twice:
----------------------------------------------------------------------------|
----------------------------------------------------------------------------|
-4---44---4-7/9----4---44---4-7-12----4---44---4-7/9----4---44---4/12-11----|
-2r0-22r0-2-5/7-0--2r0-22r0-2-5-10-0--2r0-22r0-2-5/7-0--2r0-22r0-2/10--9-0--|
-2r0-22r0-2-5/7-0--2r0-22r0-2-5-10-0--2r0-22r0-2-5/7-0--2r0-22r0-2/10--9-0--|
-2r0-22r0-2-5/7-0--2r0-22r0-2-5-10-0--2r0-22r0-2-5/7-0--2r0-22r0-2/10--9-0--|

6:09
----------------------------------------------------------------------------------|
----------------------------------------------------------------------------------|
-4-4---4-4---4-4---4-4-----16-16---16-16---16-16---16-16--------------------------|
-2-2--02-2--02-2--02-2----014-14--014-14--014-14--014-14-0-0----------------------|
-2-2--02-2--02-2--02-2----014-14--014-14--014-14--014-14-0-0----------------------|
-2-2--02-2--02-2--02-2----014-14--014-14--014-14--014-14-0-0----------------------|

my favourite part for the outro is the wah+reverb guitar with OD or light Disto: Use these chords:
-5--0-------12-----------5--3----8----17--------------17--or-also-17--|
-8--1-------15-----------3--3---10----15-----or just--15--------------|
-5--2----7--14--or also---------------14------------------------------|
-7--0----7--12------------------------12-or-0-------------------------|
-5--0----5--12------------------------12-or-0-------------------------|
-0-(0)--(0)-----------------------------------------------------------|

I'll let you figure out the arpeggios here, they're pretty simple; or you can just feedback out
or play the Bass part.

Enjoy!
            
Submit corrections



        Not In Rivers, But In Drops lessons Hard to play? Try these video lessons and learn fast Not In Rivers, But In Drops lessons
        
↑ Back to top | Tablatures and chords for acoustic guitar and electric guitar, ukulele, drums are parodies/interpretations of the original songs. You may use it for private study, scholarship, research or language learning purposes only