» » »

Isbells - Elation Tabs

Artists:  A B C D E F G H I J K L M N O P Q R S T U V W X Y Z # 

Elation Tabs

(ver. 1) Click to play this song!
Isbells
 Rating:
4/5 (4 votes)

 Elation  lessons Tabs too difficult? Try these video lessons and learn fast
 
                Capo on 2nd. (Tabs in relation to capo)

Intro and Verses:
e|-0--0----0-0-0--0--0----0-0-0--0--0----0-0-0--0--0----0-0-0--0------------0-0-0--0------------|
B|-8--8----8-8-8--7--7----7-7-7--5--5----5-5-5--3--3----3-3-3--1-->-listen--1-1-1--1-->-listen--|
G|-0--0----0-0-0--0--0----0-0-0--0--0----0-0-0--0--0----0-0-0--0-->-to-song-0-0-0--0-->-to-song-|  Repeat
D|-9--9----9-9-9--7--7----7-7-7--5--5----5-5-5--4--4----4-4-4--2-->--for----0-0-0--2-->--for----|    x3
A|-0--------------0--------------0--------------0--------------2-->-rhythm--2-2-2--2-->-rhythm--|
E|----------------------------------------------------------------------------------------------|

What is this?, it's kind of like...all my body starts to shiver.
My worries wilt, I'm on a high, oh I've never felt like this before. Got to..

e|-0--------------0--------------------0-0-0-0-0-|
B|-3-->-listen----5-->-listen----------7-7-7-7-7-|
G|-0-->-to-song---0-->-to-song---------0-0-0-0-0-|
D|-4-->--for------5-->--for------------7-7-7-7-7-|
A|-4-->-rhythm----5-->-rhythm----------7-7-7-7-7-|
E|-----------------------------------------------|

..Let it go.     Shout it out. I will sing it from the heart.

CHORUS: 'Ooh oooh ooh ooh'  Same as verses.

VERSE 2:
This is right, this is good, expressions of elation.
A state of mind of which I'll try to re-echo from the start. Come on.
Shout it out and release it form the start. 'Ooh oooh ooh ooh!'

VERSE 3:
This is what, this is what, this is what it all comes down to.
When you need, when you need, when you need to let it all through.
Shout it out and release it from the heart. 

LAST CHORUS:
e|-0--0----0-0-0--0--0----0-0-0--0--0----0-0-0--0--0----0-0-0---|
B|-5--5----5-5-5--5--5----5-5-5--7--7----7-7-7--7--7----7-7-7---|
G|-0--0----0-0-0--0--0----0-0-0--0--0----0-0-0--0--0----0-0-0---|  Repeat
D|-5--5----5-5-5--5--5----5-5-5--7--7----7-7-7--7--7----7-7-7---|    x2
A|-5--5----5-5-5--5--5----5-5-5--7--7----7-7-7--7--7----7-7-7---|
E|--------------------------------------------------------------|

'Ooh oooh ooh ooh. Ooh oooh.'

e|-0--0----0-0-0--0--0----0-0-0--0--0----0-0-0--0--0----0-0-0---|
B|-1--1----1-1-1--3--3----3-3-3--5--5----5-5-5--7--7----7-7-7---|
G|-0--0----0-0-0--0--0----0-0-0--0--0----0-0-0--0--0----0-0-0---|
D|-2--2----2-2-2--4--4----4-4-4--5--5----5-5-5--7--7----7-7-7---|
A|-2--2----2-2-2--4--4----4-4-4--5--5----5-5-5--7--7----7-7-7---|
E|--------------------------------------------------------------|

"Ooh oooh ooh ooh oooh'

Back to verse/chorus progression for la da da's. And
Outro:
What is this? It's kind of like...it's the echo from the start.

Finish on:
e|---0----|
B|---8----|
G|---0----|
D|---9----|
A|---0----|
E|--------|\            
Submit corrections


        Elation  lessons Hard to play? Try these video lessons and learn fast Elation  lessons
        
↑ Back to top | Tablatures and chords for acoustic guitar and electric guitar, ukulele, drums are parodies/interpretations of the original songs. You may use it for private study, scholarship, research or language learning purposes only